Guitaretab - guitar tabs
Song name
# A B C D E F G H I J K L M N O P Q R S T U V W X Y Z

Michael W Smith - Let It Rain tab

Highlighted       Show chord diagrams
(THIS IS MY FIRST TAP SO I'M SORRY FOR ANY MISTAKES!)

Vary basic. Vary easy. I wrote the solo myself. It goes along GREAT with the song. Ill
explaining it as if you were in a full band. No need to panic, you can play this song
way no problem if its just you. All you for sure need is a guitarist. 

        Am
Let it rain
         F
Let it rain
C                        G/B
Open the flood gates of heaven

        Am
Let it rain
         F
Let it rain
C                        G/B
Open the flood gates of heaven

Feel free toss in cool build-ups and stuff, its hard to mess up while playing this
You dont have to stay soft! Last Sunday at church we really made this song rock!

At any point in the song you may want to get some-what soft, and make everything a
bit quite, and then have an electric guitarist play this solo (for best sound, play distorted):

                         Am
     Let      it       RainK
D~----10-----9--------7--7--

                             F
        Let      it        Rain...
D~-------10------9-------7--7--5--

[ Tab from: http://www.guitaretab.com/m/michael-w-smith/142542.html ]
              C                                                  G/B
             Open         the      Flood    Gates     of        Heaven
D~----------10--10---------10-------10--------9--------7---------10X9--

Play it a few times through with the background guitar playing the chords.

If you REALLY wanted to kick it up and REALLY rock out, you could put the distortion on
have the guitarist and have him play these power chords.

       Am          F          C               G/B
     KRain        KRain      Open theK      Heaven
A~ --7-7-7-7-----3-3-3-3-----10-10-10-10----6-6-6-6--|
E~ --5-5-5-5-----1-1-1-1-----8--8--8--8-----3-3-3-3--|

Repeat as many times as you like. After this you can end however you want, slowly fade
or end on an A, whatever suits you best.


Am

e --|---|---|---|------|
B Vx|---|---|---|-----|
G --|-x-|---|---|------|
D --|-x-|---|---|------|
A --|---|---|---|------|
E --|---|---|---|------|


F

e -x-|---|---|---|---|
B -x-|---|---|---|---|
G ---|-x-|---|---|---|
D ---|---|-x-|---|---|
A ---|---|-x-|---|---|
E -x-|---|---|---|---|


C

e ---|---|---|---|---|
B -x-|---|---|---|---|
G ---|---|---|---|---|
D ---|-x-|---|---|---|
A ---|---|-x-|---|---|
E ---|---|-o-|---|---|


G/B

7 fr.
e -x-|---|---|---|-----|
B ---|-x-|---|---|-----|
G --x|---|---|---|-----|
D ---|---|-x-|---|-----|
A ---|---|---|-x-|-----|
E -x-|---|---|---|-----|
Related for Let It Rain tab