Song name
# A B C D E F G H I J K L M N O P Q R S T U V W X Y Z

Michael W Smith - Our God Is An Awesome God tab

This is my first tab, so comment if you disagree ;)

h: hammer on
b: back to


E|--0-0--0h2-3---------7--5--5----2--3--2--0-------------------|
B|---------------3-------------------------------3--5--7--8--3-|
G|-------------------------------------------------------------|
D|-------------------------------------------------------------|
A|-------------------------------------------------------------|
E|-------------------------------------------------------------|

E|--7--5--5h7b5----------------------------------------------------|
B|-----------------8--7--5-----------------------------------------|
G|-----------------------------------------------------------------|
D|-----------------------------------------------------------------|
A|-----------------------------------------------------------------|
E|-----------------------------------------------------------------|
Tap to rate this tab
# A B C D E F G H I J K L M N O P Q R S T U V W X Y Z