Song name
# A B C D E F G H I J K L M N O P Q R S T U V W X Y Z

Michael W Smith - A New Hallelujah tab

The very simple intro.  The timing can be figured out from the song.

e[-----------------]
B[-----------------]
G[-----------------]
D[-----------------]2x
A[---5----5---3-2--]
E[-3----3---3-3-3--]

This is what's played during the song itself, with the little 3-note addition in-
between the segments.

e[------------------------][----------------]
B[------------------------][----------------]
G[------------------------][----------------]
D[------------------------][----------------]
A[---5----5---3-2---2-3-5-][---5----5---3-2-]
E[-3----3---3-3-3---------][-3----3---3-3-3-]
Tap to rate this tab
# A B C D E F G H I J K L M N O P Q R S T U V W X Y Z