Song name
# A B C D E F G H I J K L M N O P Q R S T U V W X Y Z

Michael W Smith - Place In This World tab

T---tremlo
sd--slide down

e-------------------------------------------------------------------------------|
b---------------------10--8--10-11----------------------------------------------|
G-4----4--5---4-5--7----------------7-8-10-10-10-8-7----------------------------|
D----7------7-----------------------------------------10Tsd---------------------|

e----------------------------17--15--17-18---------------------------------|
b-------------------------15---------------15-16-18x3)-16-15---------------|
G--16-14-16-17--14--16-17------------------------------------17------------|

e----------------15x3)----------------------------------------------------------|
b-------15-17-18-------18-17-15-------------------------------------------------|
G-15-17-------------------------------------------------------------------------|
D-------------------------------------------------------------------------------|
A--------------------------------19--play a scale and try to end on 21 lol------|
Tap to rate this tab
# A B C D E F G H I J K L M N O P Q R S T U V W X Y Z