Song name
# A B C D E F G H I J K L M N O P Q R S T U V W X Y Z

Michael W Smith - Mighty To Save tab

Song    : Mighty To Save
Album   : A New Hallelujah
Tuning  : EADGBE
Key     : A

e|-----0-----0-----0----------------------------------------0-----0-----0----|
B|-----------------------3---------3-----3-----3-----2-----------------------|
G|--2-----2-----2-----2---------2-----2-----2-----2------2-----2-----2-----2-|
D|---------------------------------------------------------------------------|
A|---------------------------------------------------------------------------|
E|---------------------------------------------------------------------------|

e|---------------------------------------------------------------------------|
B|-2-----0-----0-----0-------------------------------------------------------|
G|----2-----2-----2----------------------------------------------------------|
D|---------------------------------------------------------------------------|
A|---------------------------------------------------------------------------|
E|---------------------------------------------------------------------------|
Tap to rate this tab
# A B C D E F G H I J K L M N O P Q R S T U V W X Y Z