Song name
# A B C D E F G H I J K L M N O P Q R S T U V W X Y Z

Michale Graves - We Wait tab

Intro
E-------------------------|
B-------------------------|
G-------------------------|
D-8-8-8-8-8-8-8-8-8-8-6-6-|
A-8-8-8-8-8-8-8-8-8-8-6-6-|
E-6-6-6-6-6-6-6-6-6-6-4-4-|

Riff One
E-------------------------------------------------------------------|
B-------------------------------------------------------------------|
G-10101010101010108-8-8-8-8-8-8-8-8---------------------------------|
D-10101010101010108-8-8-8-8-8-8-8-8-8-8-8-8-8-8-8-8-8-8-8-8-8-8-8-8-|
A-8-8-8-8-8-8-8-8-6-6-6-6-6-6-6-6-6-8-8-8-8-8-8-8-8-8-8-8-8-8-8-8-8-|
E-----------------------------------6-6-6-6-6-6-6-6-6-6-6-6-6-6-6-6-|

Riff Two
E-------------------------------------------------------------------|
B-------------------------------------------------------------------|
G-10101010101010108-8-8-8-8-8-8-8-8---------------------------------|
D-10101010101010108-8-8-8-8-8-8-8-8-x-x-x-8-x-x-x-8-x-x-x-8-x-x-x-8-|
A-8-8-8-8-8-8-8-8-6-6-6-6-6-6-6-6-6-x-x-x-8-x-x-x-8-x-x-x-8-x-x-x-8-|
E-----------------------------------x-x-x-6-x-x-x-6-x-x-x-6-x-x-x-6-|

****************************************************************************
Very Simple Song, it would be extremely tidious for me to show you the number of times 
is played, it's not hard to follow, riff one and two simple trade off from time to time 
intro of course is only played at the begining of the song
Tap to rate this tab
# A B C D E F G H I J K L M N O P Q R S T U V W X Y Z