Song name
# A B C D E F G H I J K L M N O P Q R S T U V W X Y Z

Michale Graves - Dig Up Her Bones tab

Help us improve GuitareTab! Take a short survey!
Dig Up Her Bones
Michale Graves
1/2 step down


=Intro=
eb|---------------------------------------------------------------------------|
Bb|---------------------------------------------------------------------------|
Gb|---------------------------------------------------------------------------|
Db|---------------------------------------------------------------------------|
Ab|--5/9-9-9-9-9-9--5-5-5-5-5-5--7-7-7-7-7-7----------------------------------|
Eb|--3/7-7-7-7-7-7--3-3-3-3-3-3--5-5-5-5-5-5--7-5-7-5-7-5-7-5-7---------------|

=Intro Cont.=                                  -pick slide-
eb|----------------------------------------|----------------------------------|
Bb|----------------------------------------|----------------------------------|
Gb|----------------------------------------|----------------------------------|
Db|----------------------------------------|---\\\\\\\\\\\--------------------|
Ab|--9-9-9-9-9-9--5-5-5-5-5-5--7-7-7-7-7-7-|----\\\\\\\\\\\-------------------|
Eb|--7-7-7-7-7-7--3-3-3-3-3-3--5-5-5-5-5-5-|----------------------------------|

=Intro Cont.=
eb|---------------------------------------------------------------------------|
Bb|---------------------------------------------------------------------------|
Gb|---------------------------------------------------------------------------|
Db|----------------7-7-7------------------------------------------------------|
Ab|--9-9-9--5-5-5--5-5-5--7-7-7--9-9-9--5-5-5--7:--5--------------------------|
Eb|--7-7-7--3-3-3---------5-5-5--7-7-7--3-3-3--5:--3--------------------------|

=Verse=
eb|---------------------------------------------------------------------------|
Bb|---------------------------------------------------------------------------|
Gb|---------------------------------------------------------------------------|
Db|---------------------------------------------------------------------------|
Ab|--9--9-9-9-9-9--5--5-5-5-5-5--7--7-7-7-7-7---------------------------------|
Eb|--7--7-7-7-7-7--3--3-3-3-3-3--5--5-5-5-5-5--7-5-7-5-7-5-7-5-7--------------|
(PM)    . . . . .     . . . . .     . . . . . 

=Bridge=
eb|---------------------------------------------------------------------------|
Bb|---------------------------------------------------------------------------|
Gb|---------------------------------------------------------------------------|
Db|---------------------------------------------------------------------------|
Ab|--5=--7=----9-7-9----9\7---------------------------------------------------|
Eb|--3=--5=----7-5-7----7\5---------------------------------------------------|

=Bride Two=
eb|---------------------------------------------------------------------------|
Bb|---------------------------------------------------------------------------|
Gb|---------------------------------------------------------------------------|
Db|---------------------------------------------------------------------------|
Ab|--5--5-5-5-5-5--7--7-7-7-7-7----9-7-9----9\7-------------------------------|
Eb|--3--3-3-3-3-3--5--5-5-5-5-5----7-5-7----7\5-------------------------------|
(PM)    . . . . .     . . . . .

=Chorus=
eb|---------------------------------------------------------------------------|
Bb|---------------------------------------------------------------------------|
Gb|---------------------------------------------------------------------------|
Db|------------------------7-7-7-7--------------------------------------------|
Ab|--9-9-9-9----5-5-5-5----5-5-5-5----7-7-7-7---------------------------------|
Eb|--7-7-7-7----3-3-3-3---------------5-5-5-5---------------------------------|

=Outro=
eb|---------------------------------------------------------------------------|
Bb|---------------------------------------------------------------------------|
Gb|---------------------------------------------------------------------------|
Db|---------------------------------------------------------------------------|
Ab|--9=-----------------------------------------------------------------------|
Eb|--7=-----------------------------------------------------------------------|
*Get feedback after strumming the chord

-----------------
-=-Song Order-=-|
intro       1x  |
verse       4x  |
bridge 1    2x  |
verse       4x  |
bridge 2    2x  |
chorus      4x  |
verse       6x  |
bridge 2    2x  |
chorus      8x  |
outro       1x  |
------------------
| =  Hold chord
| PM Palm mute
| /  slide up
| \  slide down
Related for Dig Up Her Bones tab