Guitaretab - guitar tabs
Song name
# A B C D E F G H I J K L M N O P Q R S T U V W X Y Z

Michale Graves - Descending Angel Acoustic tab

Highlighted       Show chord diagrams
michale graves - descending angel
http://de.youtube.com/watch?v=kWP5fqJ23Kw


open chords
[ Tab from: http://www.guitaretab.com/m/michale-graves/175917.html ]
capo 1st fret
 
   Am  C   G   E
e|-0---0---3---0-|
h|-1---1---3---0-|
g|-2---0---0---1-|
d|-2---2---0---2-|
a|-0---3---2---2-|
e|---------3---0-|

---------------------------------

the powerchords are ...
you can also play bareÚs

  A#m  C#  G#  F
e|---------------|
h|---------------|
g|-----6---------|
d|-8---6---6---3-|
a|-8---4---6---3-|
e|-6-------4---1-|

have fun!
Related for Descending Angel Acoustic tab