Song name
# A B C D E F G H I J K L M N O P Q R S T U V W X Y Z

Michale Graves - Almost Home tab

-------------------------------------------------------------------------------
			     Almost Home - Michale Graves
-------------------------------------------------------------------------------
Tabbed by: luci0
Email: lions_in_trees@yahoo.com

Tuning: Down 1/2 step [Eb/D#]

Verse:
e|----------------------------------|
B|-3-3------------------------------|
G|-4-4---3-3-3--4-4-4-4-4-4-4-4-----|
D|-4-4---4-4-4--5-5-5-5-5-5-5-5-----|
A|-2-2---4-4-4--5-5-5-5-5-5-5-5-----|
E|-0-0---2-2-2--3-3-3-3-3-3-3-3-----| x4

Chorus:
e|-----------------------------------------------------------------|
B|-----------------------------------3-3--3-3-3-0------------------|
G|-11-11--11-11-11--6-6-6-6-6-6-6-6--4-4--4-4-4-0--3-3-3-3-3-3-3-3-|
D|-12-12--12-12-12--7-7-7-7-7-7-7-7--4-4--4-4-4-0--4-4-4-4-4-4-4-4-|
A|-12-12--12-12-12--7-7-7-7-7-7-7-7--2-2--2-2-2-0--4-4-4-4-4-4-4-4-|
E|-10-10--10-10-10--5-5-5-5-5-5-5-5--0-0--0-0-0-0--2-2-2-2-2-2-2-2-| x4
  on last time around, play the last chord twice.

The song order goes:
Verse
Verse
Chorus
Verse
Chorus
Verse
Verse

Just listen to the song for the rhythm, it's very easy. This may not be 100% 
but it sounds right. I personally think it sounds best if the bottom strings are played open when 
being played acoustically, but it's up to you.
========================================================================
Tap to rate this tab
# A B C D E F G H I J K L M N O P Q R S T U V W X Y Z