Song name
# A B C D E F G H I J K L M N O P Q R S T U V W X Y Z

Michale Graves - Fountains Of Heroine tab

-------------------------------------------------------------------------------
			     Fountains of Heroine - Michale Graves
-------------------------------------------------------------------------------
Tabbed by: luci0
Email: lions_in_trees@yahoo.com

Tuning: Down 1/2 step [Eb/D#]

Verse:
e|----------------------------------|
B|----------------------------------|
G|-4-4------------------------------|
D|-4-4---4-4-4--5-5-5-5-5-5-5-5-----|
A|-2-2---4-4-4--5-5-5-5-5-5-5-5-----|
E|-0-0---2-2-2--3-3-3-3-3-3-3-3-----| x4

Chorus:
e|----------------------------------------------------------------|
B|----------------------------------------------------------------|
G|-----------------------------------4-4--4-4-4-0-----------------|
D|-12-12--12-12-12--7-7-7-7-7-7-7-7--4-4--4-4-4-0--4-4-4-4-4-4-4-4|
A|-12-12--12-12-12--7-7-7-7-7-7-7-7--2-2--2-2-2-0--4-4-4-4-4-4-4-4|
E|-10-10--10-10-10--5-5-5-5-5-5-5-5--0-0--0-0-0-0--2-2-2-2-2-2-2-2| x4
  on last time around, play the last chord twice.

The song order goes:
Verse
Verse
Chorus
Verse
Chorus
Verse
Verse

Just listen to the song for the rhythm, it's very easy. This may not be 100% 
but it sounds right.
========================================================================
Tap to rate this tab
# A B C D E F G H I J K L M N O P Q R S T U V W X Y Z