Song name
# A B C D E F G H I J K L M N O P Q R S T U V W X Y Z

Michale Graves - So Dont You Know tab

Help us improve GuitareTab! Take a short survey!
Highlighted       Show chord diagrams
Tabbed By Taylor Wasielewski

Intro
E------------------------------------------------|
B------------------------------------------------|
G-----------8-8-8-8-8-9-9-9-9-9-11-11-11-11-11---|
D-9-9-9-9-9-8-8-8-8-8-9-9-9-9-9-11-11-11-11-11---|
A-9-9-9-9-9-6-6-6-6-6-7-7-7-7-7-9--9--9--9--9----|
E-7-7-7-7-7--------------------------------------|

Verse
E------------------------------------------|
B------------------------------------------|
G------------------------------------------|
D-9-9-9-9-9-6-6-6-6-6-2-2-2-2-2-4-4-4-4-4--|
A-9-9-9-9-9-6-6-6-6-6-2-2-2-2-2-4-4-4-4-4--|
E-7-7-7-7-7-4-4-4-4-4-0-0-0-0-0-2-2-2-2-2--|
B            G#
so don't you know?
E                F#
there's one less loader,
B            G#
hanging by a rope,
E               F#
you should have listened,
B            G#
so don't you know?
E           F#        B         G#
i knew that there was something i forgot,
E                          F#
that i just had to let you know,

Chorus
E---------------------------------------------|
B---------------------------------------------|
G-----------------4--4444---------------------|
D-2--2222-4--4444-4--4444--2--22222222244444--|
A-2--2222-4--4444-2--2222--2--22222222244444--|
E-0--0000-2--2222----------0--00000000022222--|


wide awake and dreaming i'm dreaming if you,
i can't move i'm dieing,

B            G#
so don't you know?
E                  F#
one wired waste of want,
B                    G#
and weeks that never end!
E            F#
maybe you've counted?
B            G#
so don't you know?
E           F#        B         G#
i knew that there was something i forgot,
E                          F#
that i just had to let you know,

Chorus

Intro

so don't you know?(Repeated)
Related for So Dont You Know tab