Guitaretab - guitar tabs
Song name
# A B C D E F G H I J K L M N O P Q R S T U V W X Y Z

Michale Graves - Attack Of The Butterflies tab

Highlighted       Show chord diagrams
Tabbed By - Taylor Wasielewski

Intro = 4x
|-------------------------|
|-------------------------|
|-------------------------|
|-------------5-5~--------|
|-----3--5-6-------6--5-3-|
|-------------------------|

|-----------------------------------------------|
|-----------------------------------------------|
|-----------------------------------------------|
|-----------------------------------------------|
|-----5-5-----8-8-------------------------------|
|-----3-3-6-6-6-6-8-8--6-6--6-4/5-5-5-5-5-5-5-5-|
|---------4-4-----6-6--4-4--4-6/3-3-3-3-3-3-3-3-|

Verse 1

|---------------------|
|---------------------|
|---------------------|
|-----C---G#--D#--A#--|
|-----5-5-----8-8-----|
|-----3-3-6-6-6-6-8-8-|
|---------4-4-----6-6-|
[ Tab from: http://www.guitaretab.com/m/michale-graves/179720.html ]
C       G#    D#    A#
welcome to my never never,
C     G#      D#    A#
never world,
C         G#
come with me,
     D#         A#       C
i'll bring you peaceful sleep
G#       D#       A#
retarded memories my
C      G#   D# A#
heroin hold it in
G#
if smoke gets in your
G
eyes, i apologize

Intro

Verse 2
C       G#    D#
welcome to my hello,
A#     C     G#      D#     A#
hello, hello world,
C     G#     D#      A#
going down a one way street,
C         G#     D#   A#
footsteps in the gallery
C     G#       D#       A#
sleep retarded memories my
C      G#   D# A#
heroin hold it in
G#
if smoke gets in your
G
eyes, i apologize

Verse 3
C    G#         D#   A#
i am all you'll ever need
C    G#        D# A#
i am the child messiah
C     G#     D# A#
jesus christ is dead
G                        G#
the butterflies are lost inside
Related for Attack Of The Butterflies tab
Advertisement will be closed in 10 seconds