Song name
# A B C D E F G H I J K L M N O P Q R S T U V W X Y Z

Michale Graves - Fiend Club tab

Fiend Club (Acoustic Version)
Michale Graves
Tabbed By: Jeff Domingue
email: Linghoejohnson93@gmail.com

The Intro is the best i could come up with. it sounds correct though. 
idk if the rhythm and stuff is right. just play around with it.
-Cheers!

=-=-=-=-=-=-=-=-=-=-

Intro/Verse
|-----------------------------|
|-----------------------------|
|-----------------------------|
|-----------------------------|
|---2-----2--2---2-----2---2--|
|-4---4-4---4--0---0-0---2----|

Chorus		                     Chorus Ending
|-------------------------------------|-------------------------------|
|-------------------------------------|-------------------------------|
|-----------------8--8-8--10--10-10---|-8--8-8-8-8-8---5--5-5-5-5-5---|
|-8--8-8--7--7-7--8--8-8--10--10-10---|-8--8-8-8-8-8---5--5-5-5-5-5---|
|-8--8-8--7--7-7--6--6-6---8---8--8---|-6--6-6-6-6-6---3--3-3-3-3-3---|
|-6--6-6--5--5-5----------------------|-------------------------------|

And that's it, the whole song. plz rate and comment
and i appreciate anyone who emails me with corrections
and etc..
-thanks, and enjoy!
Tap to rate this tab
# A B C D E F G H I J K L M N O P Q R S T U V W X Y Z