Song name
# A B C D E F G H I J K L M N O P Q R S T U V W X Y Z

Michale Graves - Saturday Night chords

Highlighted       Show chord diagrams
-=-=-=-=-=-=-=-=-=-=-=-=-=-
SATURDAY NIGHT
MICHALE GRAVES
Standard Tuning
-=-=-=-=-=-=-=-=-=-=-=-=-=-
Watch this: http://www.youtube.com/watch?v=TRtuhzgbSy0
this is the video i tabbed it from. watch it for the
strumming patterns and song order and ect...


VERSE
   E     C#    A     B
|------------------------|
|------------------------|
|--7-----4---------------|
|--7-----4-----5-----7---|
|--5-----2-----5-----7---|
|--------------3-----5---|


Pre Chorus
   A     B     E
|------------------|
|------------------|
|--------------7---|
|--5-----7-----7---|
|--5-----7-----5---|
|--3-----5---------|
   A     B     G#    A    A  B
|-----------------------|------|
|-----------------------|------|
|-----------------------|------|
|--5-----7-----4-----5--|-5--7-|
|--5-----7-----4-----5--|-5--7-|
|--3-----5-----2-----3--|-3--5-|


CHORUS
   E     C#    A     B     E
|------------------------|---|
|------------------------|---|
|--7-----4---------------|-7-|
|--7-----4-----5-----7---|-7-|
|--5-----2-----5-----7---|-5-|
|--------------3-----5---|---|
  D#
|---|
|---|
|-6-|
|-6-|
|-4-|
|---|


SOlo Riff

   E     C#    A     B
|------------------------|
|------------------------|
|--7-----4---------------|
|--7-----4-----5-----7---|
|--5-----2-----5-----7---|
|--------------3-----5---|

Verse
   F#    D#    B     C#
|------------------------|
|------------------------|
|--9-----6---------------|
|--9-----6-----7-----9---|
|--7-----4-----7-----9---|
|--------------5-----7---|


Pre Chorus
   B     C#    F#
|------------------|
|------------------|
|--------------9---|
|--7-----9-----9---|
|--7-----9-----7---|
|--5-----7---------|

Chorus

   F#    D#    B     C#
|------------------------|
|------------------------|
|--9-----6---------------|
|--9-----6-----7-----9---|
|--7-----4-----7-----9---|
|--------------5-----7---|

play this chorus the rest of the song

end on this
  F#
|---|
|---|
|-9-|
|-9-|
|-7-|
|---|
Tap to rate this tab
# A B C D E F G H I J K L M N O P Q R S T U V W X Y Z