Song name
# A B C D E F G H I J K L M N O P Q R S T U V W X Y Z

Michale Graves - Shining chords

Highlighted       Show chord diagrams
SHINING 
MICHALE GRAVES
Standard Tuning
-=-=-=-=-=-=-=-=-=-=-=-=-=-=-=-=-=-=-
go here: http://www.youtube.com/watch?v=WTWuzlhfsbI
watch it to learn the strumming patterns for the song
and learn the parts michale plays for the intro. i had 
trouble seeing what he plays.he plays a different intro 
and chorus than J.V. anway, yeah, here's the tab. enjoy : ]

INTRO

  E
|---|
|---|
|-1-|
|-2-|
|-2-| 
|---|


VERSE
   E      C   B
|-----------------|
|-----------------|
|--1------5---4---|
|--2------5---4---|
|--2------3---2---|
|-----------------|

BRIDGE
   C   B
|---------|
|---------|
|--5---4--|
|--5---4--|
|--3---2--|
|---------|

INTRO

  E
|---|
|---|
|-1-|
|-2-|
|-2-|
|---|


VERSE
   E      C   B
|-----------------|
|-----------------|
|--1------5---4---|
|--2------5---4---|
|--2------3---2---|
|-----------------|

BRIDGE
   C   B
|---------|
|---------|
|--5---4--|
|--5---4--|
|--3---2--|
|---------|

CHORUS

Guitar 1 (Michale)
   C   E   B    Ending
|--------------|------|
|--------------|------|
|--5---1---4---|-5--4-|
|--5---2---4---|-5--4-|
|--3---2---2---|-3--2-|
|--------------|------|

Guitar 2 (J.V)
   D#  E   D    Ending
|--------------|------|
|--------------|------|
|--6---7-------|-5--4-|
|--6---7---10--|-5--4-|
|--4---5---10--|-3--2-|
|----------8---|------|

INTRO

  E
|---|
|---|
|-1-|
|-2-|
|-2-|
|---|

VERSE
   E      C   B
|-----------------|
|-----------------|
|--1------5---4---|
|--2------5---4---|
|--2------3---2---|
|-----------------|

CHORUS x2

Guitar 1 (Michale)
   C   E   B    Ending
|--------------|------|
|--------------|------|
|--5---1---4---|-5--4-|
|--5---2---4---|-5--4-|
|--3---2---2---|-3--2-|
|--------------|------|

Guitar 2 (J.V)
   D#  E   D    Ending
|--------------|------|
|--------------|------|
|--6---7-------|-5--4-|
|--6---7---10--|-5--4-|
|--4---5---10--|-3--2-|
|----------8---|------|

INTRO

  E
|---|
|---|
|-1-|
|-2-|
|-2-| 
|---|

Play this last intro to the end of the song, then your done :D
plz rate and comment -Jeff
Tap to rate this tab
# A B C D E F G H I J K L M N O P Q R S T U V W X Y Z