Michale Graves - So Dont You Know tab

So Dont You Know 



|----------------------------------------------------|
|----------------------------------------------------|
|-4----------8----------9----------11----------------|
|-4-4-4-4-4/-8-8-8-8-8/-9-9-9-9-9/-11-11-11-11-11----|
|-2-2-2-2-2/-6-6-6-6-6/-7-7-7-7-7/--9--9--9--9--9----|
|----------------------------------------------------|



|----------------|-----------------|-------------------------|
|----------------|-----------------|-------------------------|
|-4-----------8--|----------9------|------11-----------------|
|-4--4-4-4-4/-8--|-8-8-8-8/-9--9-9-|-9-9/-11--11-11-11-11----|
|-2--2-2-2-2/-6--|-6-6-6-6/-7--7-7-|-7-7/--9---9--9--9--9----|
|----------------|-----------------|-------------------------|


                                                4x
||----------------------------------------------||
||o--------------------------------------------o||
||----------------------------------------------||
||----------------------------------------------||
||o-9-9-9-9-9-6-6-6-6-6-2-2-2-2-2-4-4-4-4-4----o||
||--7-7-7-7-7-4-4-4-4-4-0-0-0-0-0-2-2-2-2-2-----||


  PM------------------------------------------------------------|
|------------------------------------------------------------------|
|------------------------------------------------------------------|
|-----------------------4------------------------------------------|
|-2----------4----------4--4-4-4-4-2-------------------------------|
|-2--2-2-2-2-4--4-4-4-4-2--2-2-2-2-2--2-2-2-2-2-2-2-2-2-4-4-4-4-4--|
|-0--0-0-0-0-2--2-2-2-2------------0--0-0-0-0-0-0-0-0-0-2-2-2-2-2--|


|----------------|-----------------|-------------------------|
|----------------|-----------------|-------------------------|
|-4-----------8--|----------9------|------11-----------------|
|-4--4-4-4-4/-8--|-8-8-8-8/-9--9-9-|-9-9/-11--11-11-11-11----|
|-2--2-2-2-2/-6--|-6-6-6-6/-7--7-7-|-7-7/--9---9--9--9--9----|
|----------------|-----------------|-------------------------|


                                                    4x
||----------------------|---------------------|-----||
||o---------------------|---------------------|----o||
||----------------------|---------------------|-----||
||----------------------|---------------------|-----||
||o-9-9-9-9-9-6-6-6-6-6-|-2-2-2-2-2-4-4-4-4-4-|----o||
||--7-7-7-7-7-4-4-4-4-4-|-0-0-0-0-0-2-2-2-2-2-|-----||



  PM--------------------------------------------------------------------|
|---------------|----------------|----------------|-----------------|------|
|---------------|----------------|----------------|-----------------|------|
|---------------|---------4------|----------------|-----------------|------|
|-2----------4--|---------4--4-4-|-4-4-2----------|-----------------|------|
|-2--2-2-2-2-4--|-4-4-4-4-2--2-2-|-2-2-2--2-2-2-2-|-2-2-2-2-2-4-4-4-|-4-4--|
|-0--0-0-0-0-2--|-2-2-2-2--------|-----0--0-0-0-0-|-0-0-0-0-0-2-2-2-|-2-2--|



|----------------|-----------------|-------------------------|
|----------------|-----------------|-------------------------|
|----------------|-----------------|-------------------------|
|-4--4-4-4-4/-8--|-8-8-8-8/-9--9-9-|-9-9/-11--11-11-11-11----|
|-2--2-2-2-2/-6--|-6-6-6-6/-7--7-7-|-7-7/--9---9--9--9--9----|
|----------------|-----------------|-------------------------|



|----------------|-----------------|-------------------------|
|----------------|-----------------|-------------------------|
|----------------|-----------------|-------------------------|
|-4--4-4-4-4/-8--|-8-8-8-8/-9--9-9-|-9-9/-11--11-11-11-11----|
|-2--2-2-2-2/-6--|-6-6-6-6/-7--7-7-|-7-7/--9---9--9--9--9----|
|----------------|-----------------|-------------------------|


                                                    6x
||----------------------|---------------------|-----||
||o---------------------|---------------------|----o||
||----------------------|---------------------|-----||
||----------------------|---------------------|-----||
||o-9-9-9-9-9-6-6-6-6-6-|-2-2-2-2-2-4-4-4-4-4-|----o||
||--7-7-7-7-7-4-4-4-4-4-|-0-0-0-0-0-2-2-2-2-2-|-----||



|----------------------------------------------|
|----------------------------------------------|
|-----------------------------------------4----|
|-4-------4-------4-------4-------4-------4----|
|-4-4-4-4-4-4-4-4-4-4-4-4-4-4-4-4-4-4-4-4-2----|
|-2-2-2-2-2-2-2-2-2-2-2-2-2-2-2-2-2-2-2-2------|
Tap to rate this tab
 
# A B C D E F G H I J K L M N O P Q R S T U V W X Y Z