Song name
# A B C D E F G H I J K L M N O P Q R S T U V W X Y Z

Michale Graves - Ophila tab

OPHEILA - dropped D
=======
transcription: Ramystein

Intro/Main guitar
E------------------------------------------------------------|
B------------------------------------------------------------|
G------------------------------------------------------------|
D------------------------------------------------------------|
A-----------9-----12--10--9-----------7-----9---7---5--------|
D---9---9-----9-----------------5---5----5-------------------|

Chorus
(in the recordings there's two guitar tracks, guitar 1 plays its riff before
the main riff played in the chorus)

Guitar 1
E------------------------------------------------------------|
B------------------------------------------------------------|
G------------------------------------------------------------|
D------------------------------------------------------------|
A---10---9---7---5-------------------------------------------|
D------------------------------------------------------------|

Guitar 2
E------------------------------------------------------------|
B------------------------------------------------------------|
G------------------------------------------------------------|
D----7-------------------------------------------------------|
A----5---7---5-----------------------------------------------|
D--------7---5-----------------------------------------------|

then the end riff on the chorus goes like this
E------------------------------------------------------------|
B------------------------------------------------------------|
G------------------------------------------------------------|
D---7--------------------------------------------------------|
A---5---8----------------------------------------------------|
D-------8----------------------------------------------------|

the second note is bent twice during this riff with a distortion effect

While the main guitar is playing the intro/main riff the 2nd guitar is playing
B D
under it

The solo to this song, which is only clearly heard in the Graves 2001 demos
is something like this:

B---9---3---2---3---2------ in vatiation, and then ends by going from the
9th fret to, i believe, being bent on the 12 fret, but i could be wrong.
Tap to rate this tab
 
# A B C D E F G H I J K L M N O P Q R S T U V W X Y Z