Song name
# A B C D E F G H I J K L M N O P Q R S T U V W X Y Z

Michale Graves - Teenage Monster tab

I saw the other tab for this song and didn't like it so I decided to do my own.  I'm
sure this is right so. NOTE: NOT ALL WORDS MATCH UP WITH THE
CHORDS. LISTEN TO IT TO FIND OUT.

DURMS START
A LITTLE FEEDBACK FADES IN IN THE BEGINNING ON THE FIRST NOTE


* LET IT RING
X MUTE


E---------------------------------------------------|
B---------------------------------------------------|
G--*6----*6---------*6------------------------------|
D--*6----*6---------*6------------------------------|
A--*4----*4---------*4------------------------------|
E---------------------------------------------------|                     Teenage
Kill my father

E---------------------------------------------------|
B---------------------------------------------------|
G-6-6-6-*2----------------*6------------------------|
D-6-6-6-*2----------------*6------------------------|
A-4-4-4-*0----------------*4------------------------|
E---------------------------------------------------|
         Something the sky tonight

E---------------------------------------------------|
B---------------------------------------------------|
G---------------------------------------------------|
D---------------------------------------------------|
A---------------------------------------------------|
E---------------------------------------------------|
  Teenage monster Soul survivor

E---------------------------------------------------|
B---------------------------------------------------|
G--6-6-6-*2---------------------*6------------------|
D--6-6-6-*2---------------------*6------------------|
A--4-4-4-*0---------------------*4------------------|
E---------------------------------------------------|
          Something stirs inside tonight

E----------------------------------------------------|
B----------------------------------------------------|
G--2-2-2-2-4-4-4-4-6-6-6-6-6-6-6-6-------------------|
D--2-2-2-2-4-4-4-4-6-6-6-6-6-6-6-6-------------------|
A--0-0-0-0-2-2-2-2-4-4-4-4-4-4-4-4-------------------|
E----------------------------------------------------|
   I am growing up Ugly and stupid

E----------------------------------------------------|
B----------------------------------------------------|
G--2-2-2-2-4-4-4-4-6-6-6-6-6-6-6-6-------------------|
D--2-2-2-2-4-4-4-4-6-6-6-6-6-6-6-6-------------------|
A--0-0-0-0-2-2-2-2-4-4-4-4-4-4-4-4-------------------|
E----------------------------------------------------|
       What has happened to me----

E----------------------------------------------------|
B----------------------------------------------------|
G--2-2-2-2-4-4-4-4-6-6-6-6-6-6-6-6-------------------|
D--2-2-2-2-4-4-4-4-6-6-6-6-6-6-6-6-------------------|
A--0-0-0-0-2-2-2-2-4-4-4-4-4-4-4-4-------------------|
E----------------------------------------------------|
   I'm so different I can't stand it

E----------------------------------------------------|
B----------------------------------------------------|
G--2-2-2-2-4-4-4-4-----------------------------------|
D--2-2-2-2-4-4-4-4-----------------------------------|
A--0-0-0-0-2-2-2-2-----------------------------------|
E----------------------------------------------------|
      Teenage monster That's me

E----------------------------------------------------|
B----------------------------------------------------|
G---6-X-X-6-X-6-6-2-6--------------------------------|
D---6-X-X-6-X-6-6-2-6--------------------------------| X2
A---4-X-X-4-X-4-4-0-4--------------------------------|
E----------------------------------------------------|

E----------------------------------------------------|
B----------------------------------------------------|
G---*6-----------------------------------------------|
D---*6-----------------------------------------------|
A---*4-----------------------------------------------|
E----------------------------------------------------|
     Teenage monster    Killed my childhood

E---------------------------------------------------|
B---------------------------------------------------|
G--6-6-6-*2-----------------------*6----------------|
D--6-6-6-*2-----------------------*6----------------|
A--4-4-4-*0-----------------------*4----------------|
E---------------------------------------------------|
          Something's happening to me

E---------------------------------------------------|
B---------------------------------------------------|
G---------------------------------------------------|
D---------------------------------------------------|
A---------------------------------------------------|
E---------------------------------------------------|
     Blackmail, hiding  Youth is slowly dying

E---------------------------------------------------|
B---------------------------------------------------|
G--6-6-6-*2-----------------------------------------|
D--6-6-6-*2-----------------------------------------|
A--4-4-4-*0-----------------------------------------|
E---------------------------------------------------|
            Suddenly I feel relief


E----------------------------------------------------|
B----------------------------------------------------|
G---6-X-X-6-X-6-6-2-6--------------------------------|
D---6-X-X-6-X-6-6-2-6--------------------------------|
A---4-X-X-4-X-4-4-0-4--------------------------------|
E----------------------------------------------------|
    It takes a hold of me


E----------------------------------------------------|
B----------------------------------------------------|
G---6-X-X-6-X-6-6-2-6--------------------------------|
D---6-X-X-6-X-6-6-2-6--------------------------------|
A---4-X-X-4-X-4-4-0-4--------------------------------|
E----------------------------------------------------|
    Something takes a hold of me

E----------------------------------------------------|
B----------------------------------------------------|
G--2-2-2-2-4-4-4-4-6-6-6-6-6-6-6-6-------------------|
D--2-2-2-2-4-4-4-4-6-6-6-6-6-6-6-6-------------------|
A--0-0-0-0-2-2-2-2-4-4-4-4-4-4-4-4-------------------|
E----------------------------------------------------|
   I am growing up Ugly and stupid

E----------------------------------------------------|
B----------------------------------------------------|
G--2-2-2-2-4-4-4-4-6-6-6-6-6-6-6-6-------------------|
D--2-2-2-2-4-4-4-4-6-6-6-6-6-6-6-6-------------------|
A--0-0-0-0-2-2-2-2-4-4-4-4-4-4-4-4-------------------|
E----------------------------------------------------|
       What has happened to me----

E----------------------------------------------------|
B----------------------------------------------------|
G--2-2-2-2-4-4-4-4-6-6-6-6-6-6-6-6-------------------|
D--2-2-2-2-4-4-4-4-6-6-6-6-6-6-6-6-------------------|
A--0-0-0-0-2-2-2-2-4-4-4-4-4-4-4-4-------------------|
E----------------------------------------------------|
   I'm so different I can't stand it

E----------------------------------------------------|
B----------------------------------------------------|
G--2-2-2-2-4-4-4-4-6-6-6-6-6-6-6-6-------------------|
D--2-2-2-2-4-4-4-4-6-6-6-6-6-6-6-6-------------------|
A--0-0-0-0-2-2-2-2-4-4-4-4-4-4-4-4-------------------|
E----------------------------------------------------|
      Teenage monster

E----------------------------------------------------|
B----------------------------------------------------|
G--2-2-2-2-4-4-4-4-6-6-6-6-6-6-6-6-------------------|
D--2-2-2-2-4-4-4-4-6-6-6-6-6-6-6-6-------------------|
A--0-0-0-0-2-2-2-2-4-4-4-4-4-4-4-4-------------------|
E----------------------------------------------------|
   I am growing up Ugly and stupid

E----------------------------------------------------|
B----------------------------------------------------|
G--2-2-2-2-4-4-4-4-6-6-6-6-6-6-6-6-------------------|
D--2-2-2-2-4-4-4-4-6-6-6-6-6-6-6-6-------------------|
A--0-0-0-0-2-2-2-2-4-4-4-4-4-4-4-4-------------------|
E----------------------------------------------------|
       What has happened to me


E----------------------------------------------------|
B----------------------------------------------------|
G--2-2-2-2-4-4-4-4-6-6-6-6-6-6-6-6-------------------|
D--2-2-2-2-4-4-4-4-6-6-6-6-6-6-6-6-------------------|
A--0-0-0-0-2-2-2-2-4-4-4-4-4-4-4-4-------------------|
E----------------------------------------------------|
   I'm so different I can't stand it


E----------------------------------------------------|
B----------------------------------------------------|
G--2-2-2-2-4-4-4-4--------2-2-2-2-4-4-4-4------------|
D--2-2-2-2-4-4-4-4--------2-2-2-2-4-4-4-4------------|
A--0-0-0-0-2-2-2-2--------0-0-0-0-2-2-2-2------------|
E----------------------------------------------------|
      Teenage monster         Teenage monster


E----------------------------------------------------|
B----------------------------------------------------|
G---2-2-2-2-4-4-4-4----------------------------------|
D---2-2-2-2-4-4-4-4----------------------------------|
A---0-0-0-0-2-2-2-2----------------------------------|
E----------------------------------------------------|
       Teenage monster That's me
E----------------------------------------------------|
B----------------------------------------------------|
G---6-X-X-6-X-6-6-2-6--------------------------------|
D---6-X-X-6-X-6-6-2-6--------------------------------| X2
A---4-X-X-4-X-4-4-0-4--------------------------------|
E----------------------------------------------------|

E----------------------------------------------------|
B----------------------------------------------------|
G---6------------------------------------------------|
D---6------------------------------------------------|
A---4------------------------------------------------|
E----------------------------------------------------|

MICHALE GREAVES ROCKS!!
TABED BY KEVIN SPICER
Tap to rate this tab
 
# A B C D E F G H I J K L M N O P Q R S T U V W X Y Z