Guitaretab - guitar tabs
Song name
# A B C D E F G H I J K L M N O P Q R S T U V W X Y Z

Michale Graves - Queen Taste tab

Band:Michale Graves
Song:Queen taste
Album:Punk Rock Is Dead
Tab:Luis Alvarez



 Thrill All
|------------------------------------------------------------|
|------------------------------------------------------------|
|------------------------------------------------------------|
|------------------------------------------------------------|
|------------------------------------------------------------|
|-7/10\7--7/10\7--7/10\7---13--------------------------------|


   4 times
|------------------------|-----------------------------------|
|------------------------|-----------------------------------|
|------------------------|-----------------------------------|
|--9-9-9-9--12-12-12-12--|-----------------------------------|
|--9-9-9-9--12-12-12-12--|-----------------------------------|
|--7-7-7-7--8--8--8--8---|-----13----------------------------|
                               Thrill

 
   3 Times
|------------------------------------------------------------|
|------------------------------------------------------------|
|---------------------------------*--------------------------|
|--7--7-7-7-7-7--9--9-9-9-9-9-----5--------------------------|
|--7--7-7-7-7-7--9--9-9-9-9-9-----5--------------------------|
|--5--5-5-5-5-5--7--7-7-7-7-7-----3--------------------------|
                                  Let Ring

 Thrill All
|------------------------------------------------------------|
|------------------------------------------------------------|
|------------------------------------------------------------|
|------------------------------------------------------------|
|------------------------------------------------------------|
|-7/10\7--7/10\7--7/10\7------------13-----------------------|


[ Tab from: http://www.guitaretab.com/m/michale-graves/64319.html ]
   4 times
|------------------------|-----------------------------------|
|------------------------|-----------------------------------|
|------------------------|-----------------------------------|
|--9-9-9-9--12-12-12-12--|-----------------------------------|
|--9-9-9-9--12-12-12-12--|-----------------------------------|
|--7-7-7-7--8--8--8--8---|-----13----------------------------|
                               Thrill


   3 Times
|------------------------------------------------------------|
|------------------------------------------------------------|
|---------------------------------*--------------------------|
|--7--7-7-7-7-7--9--9-9-9-9-9-----5--------------------------|
|--7--7-7-7-7-7--9--9-9-9-9-9-----5--------------------------|
|--5--5-5-5-5-5--7--7-7-7-7-7-----3--------------------------|
                                  Let Ring

   4 times
|------------------------|-----------------------------------|
|------------------------|-----------------------------------|
|------------------------|-----------------------------------|
|--9-9-9-9--12-12-12-12--|-----------------------------------|
|--9-9-9-9--12-12-12-12--|-----------------------------------|
|--7-7-7-7--8--8--8--8---|-----13----------------------------|
                              Thrill



|------------------------------------------------------------|
|------------------------------------------------------------|
|------------------------------------------------------------|
|--9-9-9-9--12-12-12-12--------------------------------------|
|--9-9-9-9--12-12-12-12--------------------------------------|
|--7-7-7-7--8--8--8--8--------13-----------------------------|
                               Thrill



|------------------------------------------------------------|
|------------------------------------------------------------|
|------------------------------------------------------------|
|-----------------------------------------9------------------|
|-----------------------------------------9------------------|
|-7/10/13\10--7/10/13\10--7/10/13\10------7------------------|
                                           Let Ring



 Think that's it.Any ? corrections e-mail at goingdown2die@yahoo.com
 Rate This and i'll fix it it's 6 am and i didn't sleep the whole 
 because i tabbed out 1119,Godzilla,Storybook And Rhyme and this one. 
 Queen taste being the last one.It's really easy...Im tired..
Related for Queen Taste tab
Advertisement will be closed in 10 seconds