Song name
# A B C D E F G H I J K L M N O P Q R S T U V W X Y Z

Michale Graves - Shoestring tab

	BAND:MICHALE GRAVES
	ALBUM:WEB OF DHARMA
	SONG:SHOESTRING
	TABBED BY:LUIS ALVAREZ

                          

                            Shoestring


         INTRO	   4times
	|-------------------|----------------------------------|
	|-------------------|----------------------------------|
	|--5-5-5-5-5--------|--5-------------------------------|
	|--5-5-5-5-5--------|--5-------------------------------|
	|--3-3-3-3-3---2-3--|--3-------------------------------|
	|-------------------|----------------------------------|
                   =Thrill   Let it ring then palm mute 

             3 times                       
	|-------------------------------|----------------------|
	|--------4----------------------|----------------------|
	|------5---5------------5-------|----------------------|
	|----5-------5--------6---6-----|---5------------------|
	|--3-----------3----6-------6---|---5------------------|
	|-----------------4-----------4-|---3------------------|
                                            * Let ring


	|------------------------------------------------------|
	|------------------------------------------------------|
	|--------------------5-5-5-5-5-5-5---------------------|
	|--5--3--------------5-5-5-5-5-5-5---------------------|
	|--------6--5--3-----3-3-3-3-3-3-3---------------------|
	|------------------------------------------------------|
                               sTRUM UP AND DOWN WITH PALM MUTE                  


	
         VERSE/CHORUS 
	|------------------------|-----------------------------|
	|------------------------|-----------------------------|
	|--5-5-5-5-5-------------|--*--------------------------|
	|--5-5-5-5-5---6-6-6-6-6-|--5-5-5-5-5-5-5--------------|
	|--3-3-3-3-3---6-6-6-6-6-|--5-5-5-5-5-5-5--------------|
	|--------------4-4-4-4-4-|--3-3-3-3-3-3-3--------------|
        Calling Planet anywhere.
        I think I'll crash the ship again.
        I try to gain control of the controls. I'm losing...
        Falling through space again.
        The sea water is deep and swollen.
        Try to gain control of the controls. I'm losing

	
	|------------------------------------------------------|
	|------------------------------------------------------|
	|--------------------5-5-5-5-5-5-5---------------------|
	|--5--3--------------5-5-5-5-5-5-5---------------------|
	|--------6--5--3-----3-3-3-3-3-3-3---------------------|
	|------------------------------------------------------|
                      Control. sTRUM UP AND DOWN WITH PALM MUTE                  


         VERSE/CHORUS  
	|------------------------|-----------------------------|
	|------------------------|-----------------------------|
	|--5-5-5-5-5-------------|-----------------------------|
	|--5-5-5-5-5---6-6-6-6-6-|--5-5-5-5-5-5-5--------------|
	|--3-3-3-3-3---6-6-6-6-6-|--5-5-5-5-5-5-5--------------|
	|--------------4-4-4-4-4-|--3-3-3-3-3-3-3--------------|
        Fell down too and broke my face.
	They grew funeral flowers in a vase.
	Lines of casket on parade.
	Help I'm calling from an Island called despair.
	Calling planet anywhere!
	I think I have crash landed or something
	
	|------------------------------------------------------|
	|------------------------------------------------------|
	|--------------------5-5-5-5-5-5-5---------------------|
	|--5--3--------------5-5-5-5-5-5-5---------------------|
	|--------6--5--3-----3-3-3-3-3-3-3---------------------|
	|------------------------------------------------------|
                 right in the buildings.


	  VERSE/CHORUS
	|------------------------|-----------------------------|
	|------------------------|-----------------------------|
	|--5-5-5-5-5-------------|-----------------------------|
	|--5-5-5-5-5---6-6-6-6-6-|--5-5-5-5-5-5-5--------------|
	|--3-3-3-3-3---6-6-6-6-6-|--5-5-5-5-5-5-5--------------|
	|--------------4-4-4-4-4-|--3-3-3-3-3-3-3--------------|


	|-------------------|----------------------------------|
	|-------------------|--*-------------------------------|
	|--5-5-5-5-5--------|--5-------------------------------|
	|--5-5-5-5-5--------|--5-------------------------------|
	|--3-3-3-3-3---2-3--|--3-------------------------------|
	|-------------------|----------------------------------|
                   =Thrill   Let ring then palm mute


	 VERSE/CHORUS             Let ring or strum
	|------------------------|-----------------------------|
	|------------------------|-----------------------------|
	|--5-5-5-5-5-------------|--*--------------------------|
	|--5-5-5-5-5---6-6-6-6-6-|--5-5-5-5-5-5-5--------------|
	|--3-3-3-3-3---6-6-6-6-6-|--5-5-5-5-5-5-5--------------|
	|--------------4-4-4-4-4-|--3-3-3-3-3-3-3--------------|
        I'm losing control. Condition worst than yesterday.
	The same ol' seat at the parade.
	Try to gain control of the controls.
	I'm losing control.

	I'm falling through space again.
	The mission over: Mission Failure! Try to gain control of 
	the controls.


	

	This is a really cool song that I couldnt find online so 
	I tabbed it myself.It sounds right on.I tried to make 
	it real simple to read.I finished most of it Listen
	 to the song
	it's all figured out just put it where it goes.I did a
	little but got tired.
	I did most of the song.It's like 99.9% right maybe the 
	I way tabbed it is messed up but the song is right.E-mail
	back for ? and corrections goingdown2die@yahoo.com
Tap to rate this tab
 
# A B C D E F G H I J K L M N O P Q R S T U V W X Y Z