Song name
# A B C D E F G H I J K L M N O P Q R S T U V W X Y Z

Michale Graves - Casket tab

Standard Tuning
Play 2x
e:------------------------------------------------------|
b:------------------------------------------------------|
g:--7-7-77777777-7-7-7-7----444444444-------------------|
d:--7-7-77777777-7-7-7-7----444444444--5-5---7-7--------|
a:--5-5-55555554-4-4-4-4----222222222--5-5---7-7--------|
e:-------------------------------------3-3---5-5--------|

Play 2x
e:------------------------------------------------------|
b:----Pm******---*********------------------------------|
g:--7-77777777---444444444---********---********--------|
d:--7-77777777---444444444---55555555---77777777--------|
a:--5-55555555---222222222---55555555---77777777--------|
e:---------------------------33333333---55555555--------|


e:------------------------------------------------------|
b:-------------------**---------------------------------|
g:----**---**---**-4-44---**---**---**---**-44444444----|
d:--5-55/4-44/5-55-4-44-7-77/5-55/4-44/5-55-44444444----|
a:--5-55/4-44/5-55-2-22-7-77/5-55/4-44/5-55-22222222----|
e:--3-33/2-22/3-33------5-55/3-33/2-22/3-33-------------|


Play 2x
e:------------------------------------------------------|
b:----Pm******---*********------------------------------|
g:--7-77777777---444444444---********---********--------|
d:--7-77777777---444444444---55555555---77777777--------|
a:--5-55555555---222222222---55555555---77777777--------|
e:---------------------------33333333---55555555--------|

Play 2x
e:------------------------------------------------------|
b:------------------------------------------------------|
g:--7-7-77777777-7-7-7-7----444444444-------------------|
d:--7-7-77777777-7-7-7-7----444444444--5-5---7-7--------|
a:--5-5-55555554-4-4-4-4----222222222--5-5---7-7--------|
e:-------------------------------------3-3---5-5--------|

play 4x
e:---------------------------------------|
b:---------------------------------------|
g:--------------7777777777---------------|
d:--5-5---7-7---7777777777---------------|
a:--5-5---7-7---5555555555---------------|
e:--3-3---5-5----------------------------|

Solo Clean (short but sweet)
e:---------------------------------------------|
b:---------------------------------------------|
g:---------------------------------------------|
d:---5-----4-5-4-2-----2-5-2-------2-----------|
a:-------------------------------3---3---3-5---|
e:---------------------------------------------|


e:------------------------------------------------------|
b:-------------------**---------------------------------|
g:----**---**---**-4-44---**---**---**---**-4-----------|
d:--5-55/4-44/5-55-4-44-7-77/5-55/4-44/5-55-4-----------|
a:--5-55/4-44/5-55-2-22-7-77/5-55/4-44/5-55-2-----------|
e:--3-33/2-22/3-33------5-55/3-33/2-22/3-33-------------|
Tap to rate this tab
# A B C D E F G H I J K L M N O P Q R S T U V W X Y Z