Song name
# A B C D E F G H I J K L M N O P Q R S T U V W X Y Z

Michel Legrand - The Windmills Of Your Mind tab

                          The Windmills Of Your Mind                            

Michel Legrand

      ^                                                   
      Q     E  E  E  E  E  E     E  E  E  E  E  E  E  E   
E||---0~----------------------|--0--0--------3--3--2--0--|
B||---0~----0--0--1--1--0--0--|--0-----0--0--0-----------|
G||---0~----------------------|--0-----------0-----------|
D||---2-----------------------|--------------------------|
A||---2-----------------------|--------------------------|
E||---0-----------------------|--0-----------0-----------|


  Q    E  E  E  E  E  E     E  E  E  E  E  E  E  E     Q    E  E  E  E  E  E   
--2----------------------|--2--2--------5--5--3--2--|--3----0--0--2--2--0--0--|
--0----0--0--1--1--0--0--|--0-----0--0--4-----------|--0----------0-----------|
--2----------2-----------|--2-----------2-----------|--0----------0-----------|
-------------------------|--------------------------|-------------------------|
--2----------2-----------|--2-----------2-----------|-------------2-----------|
-------------------------|--------------------------|--0----------------------|


  E  E  E  E   E   E  E  E     Q    E  E  E  E  E  E   
--7--7--------10--10--8--7--|--8----------------------|
--9------------9------------|--5----------5--5--------|
--7-----9--9---7------------|--5----7--7--5-----7--7--|
----------------------------|-------------------------|
----------------------------|-------------------------|
--0------------0------------|--5----------5-----------|


  E  E  E  E  E  E  E  E     Q    E  E  E  E  E  E     E  E  E  E  E  E  E  E   
--5--5--------8--8--7--5--|--7----------------------|--3--3--------7--7--5-----|
--7-----3--3--7-----------|--0----------3--3--------|--0-----1--1--5--------8--|
--5-----------5-----------|--0----5--5--4-----5--5--|--0-----------5-----------|
--------------------------|-------------5-----------|--------------------------|
--5-----------5-----------|-------------------------|--3-----------------------|
--------------------------|--3----------3-----------|--------------------------|


  Q    E  E  E  E  E  E     E  E  E  E  E  E  E  E     Q    E  E  E  E  E  E   
--5----------------------|--2--2--------5--5--3--2--|--3----------3--3--2--0--|
--5----0--0--1--1--0--0--|--0-----0--0--4-----------|--2----------2-----------|
--5----------2-----------|--2-----------2-----------|--3----3--3--3-----------|
--4----------------------|--------------------------|-------------2-----------|
-------------0-----------|--2-----------2-----------|--1----------------------|
-------------------------|--------------------------|-------------------------|


                              ^                       
  Q    E  E  E  E  E  E       Q    E  E  E  E  E  E   
--2----------2--2---------||--0----------------------|
--0----0--0--0-----5--4---||--0----0--0--1--1--0--0--|
--2----------2------------||--0----------------------|
--------------------------||--2----------------------|
--2----------2------------||--2----------------------|
--------------------------||--0----------------------|


  E  E  E  E  E  E  E  E     Q    E  E  E  E  E  E     E  E  E  E  E  E  E  E   
--0--0--------3--3--2--0--|--5----------------------|--5--5-----------------5--|
--0-----0--0--0-----------|--5----------5--5--------|--7-----------7--7--8-----|
--0-----------0-----------|--5----7--7--5--5--7--7--|--5-----7--7--5-----------|
--------------------------|-------------------------|--------------7-----------|
--------------------------|--0----------0-----------|--5-----------------------|
--0-----------0-----------|-------------------------|--------------5-----------|


  Q    E  E  E  E  E  E      E   E  E  E   E   E   E   E   
--7----3--3--5--5--3--3--|--10--10--------13--13--12--10--|
--0----------3-----------|---8------8--8---0--------------|
--0----------4-----------|---7-------------0--------------|
-------------------------|--------------------------------|
-------------------------|--------------------------------|
--3----------3-----------|---7----------------------------|


   Q    E  E  E  E   E   E      E  E   E   E   E   E   E  E   
--12------------------------|---9--9----------12--12--10--9--|
---0----7--7--8--8----------|--11-------------11-------------|
---0----------------11--11--|---9-----11--11---9-------------|
--------------9-------------|--------------------------------|
--------------8-------------|---9--------------9-------------|
----------------------------|--------------------------------|


   Q    E  E  E  E   E   E     E  E  E  E  E  E  E  E   
--10----------7--7----------|--7--7--------4--4--5--7--|
---7----7--7--7-----10--10--|--------5--5--5-----------|
---7----------7-------------|--7-----------4-----------|
----------------------------|--------------------------|
----------------------------|--7-----------------------|
---7----------7-------------|--------------0-----------|


  Q    E  E  E  E  E  E     E  E  E  E  E  E  E  E     Q    E  E  E  E  E  E   
--8----------------------|--5--5-----------------5--|--7----------------------|
--5----------5--5--------|--7-----------7--7--8-----|--0----------3--3--------|
--5----7--7--------7--7--|--5-----7--7--5-----------|--0----5--5--------5--5--|
-------------------------|--------------7-----------|-------------------------|
--0----------L-----------|--5-----------5-----------|-------------------------|
-------------------------|--------------------------|--3----------L-----------|


  E  E  E  E  E  E   E  E     Q    E  E  E  E  E  E   
--3--3--------7--7---------|--5----3--3--2--2--0--0--|
--0-----1--1--8-----10--8--|--5----------1-----------|
--0-----------9------------|--5----------2-----------|
---------------------------|--4----------------------|
--3------------------------|-------------0-----------|
--------------8------------|-------------------------|


  E  E  E  E  E  E  E  E     Q    E  E  E  E  E  E     E  E  E  E  E  E  E  E   
--3--3--2--2--------------|--0----------------------|--0--0--------3--3--2--0--|
--4-----------5--5--4--4--|--0----0--0--1--1--0--0--|--0-----0--0--0-----------|
--2-----------------------|--0----------------------|--0-----------0-----------|
--------------------------|--2----------------------|--------------------------|
--2-----------------------|--2----------------------|--------------------------|
--------------------------|--0----------------------|--0-----------0-----------|


  Q    E  E  E  E  E  E     E  E  E  E  E  E  E  E     Q    E  E  E  E  E  E   
--2----------------------|--2--2--------5--5--3--2--|--3----------3--3--2--0--|
--0----0--0--1--1--0--0--|--4-----0--0--4-----------|--2----------2-----------|
--2----------2-----------|--2-----------2-----------|--3----3--3--3-----------|
-------------------------|--------------------------|-------------2-----------|
--2----------2-----------|--2-----------2-----------|--1----------------------|
-------------------------|--------------------------|-------------------------|


                                                      ^                  
  Q    E  E  E  E  E  E     Q    E  E  E  E  E  E     W                  
--3----------3--3--2--0--|--2----------2--2--0-----|--0----------------||
--0----0--0--0-----------|--0----0--0--0--------4--|--0----------------||
--0----------0-----------|--2----------2-----------|--0----------------||
-------------------------|--1----------1-----------|--2----------------||
-------------------------|--2----------2-----------|--2----------------||
--0----------0-----------|-------------------------|--0----------------||




Duration Legend
---------------
W - whole
H - half
Q - quarter
E - 8th
S - 16th
T - 32nd
X - 64th
. - note dotted
|-n-|  - n-tuplets


Tablature Legend
----------------
L - tied note
x - dead note
g - grace note
(n) - ghost note
> - accentuded note
NH - natural harmonic
AH - artificial harmonic
TH - tapped harmonic
SH - semi harmonic
PH - pitch harmonic
h - hammer on
p - pull off
b - bend
br - bendRelease
pb - preBend
pbr - preBendRelease
brb - bendReleaseBend
\n/ - tremolo bar dip
\n - tremolo bar dive
-/n - tremolo bar Release up
/n\ - tremolo bar inverted dip
/n - tremolo bar return
-\n - tremolo bar Release down
S - shift slide
s - legato slide
/ -  slide into from below or out of upwards
\ -  slide into from above or out of downwards
~ - vibrato
W - wide vibrato
tr - trill
TP - tremolo picking
T - tapping
S - slap
P - pop
< - fade in
^ - brush up
v - brush down
Tap to rate this tab
 
# A B C D E F G H I J K L M N O P Q R S T U V W X Y Z