Song name
# A B C D E F G H I J K L M N O P Q R S T U V W X Y Z

Michel Polnareff - Ca Narrive Quaux Autres tab

Michael Polnareff
Ca n'arrive qu'aux autres

tabbed by Hell on basis of the live version

Intro

-----------------------------------------------------------------------------|
-3------3--3-----1--------------------3------6--6-----4-----3-----4----------|
-3----0-------0-----0--3-----2--------3----0-------0-----0-----0-------------|
-0--0------1--------------5-----5-----0--0-----------------------------------|
-----------------------5------------------------3----------------------------|
-3------------------------------------3--------------------------------------|


-3-------3-----------3------------3--------3---------------------------------|
------4----------4-------------3--------3-----2------2--1------------------1-|
---5----------5-------------3---------3------------0----2---------3--------2-|
-------------------------------------------------2------0-------0---0----1---|
-3----2----1-----0----------------------------0------------------------0-----|
-------------------------3-----2----1---0------------------2--3--------------|

--------|
----3---|
----3---|
-0--0---|
--------|
-2--3---|

Chords for Verse

Gm
--------|
-3------|
-3------|
-0------|
--------|
-3------|


Adim/(F#)

--------|
--1-----|
--2-----|
--1-----|
--0-----|
-(2)----|


Bdim

--------|
--3-----|
--4-----|
--3-----|
--2-----|
--------|

Cm(9)


--------|
-(3)----|
--0-----|
--1-----|
--3-----|
--------|

A7
------|
-2----|
-0----|
-2----|
-0----|
------|

D7
-(2)--
--1---|
--2---|
--0---|
------|
------|



Gm                       Adim
La petite bête jouait au jardin
Gm         Bdim          Cm9
Et j´avais sa tête au creux de ma main
Cm
Un oiseau de plus
Gm
Un oiseau de moins
A7          D7                  Gm      Adim  Adim/F#
Tu sais, la différence c´est le chagrin

Gm                       Adim
Il n´y a pas eu école ce matin
Gm          Bdim           Cm9
Il n´y aura plus d´enfance au jardin
Cm
Un oiseau de plus
Gm
Un oiseau de moins
A7          D7                  Gm      Adim  Adim/F#
Tu sais, la différence c´est le chagrin

Gm                       Adim
La petite bête jouait au jardin
Gm          Bdim            Cm9
C´était une fête comme tous les matins
Cm
Un oiseau de toi
Gm
Un oiseau de moi
A7         D7                Gm       Bdim
Venait ici manger dans notre main

Cm
Ça n´arrive qu´aux autres
Gm
Mais c´était le nôtre
A7          D7                Gm
Tu sais, la différence c´est le chagrin
Tap to rate this tab
# A B C D E F G H I J K L M N O P Q R S T U V W X Y Z