Song name
# A B C D E F G H I J K L M N O P Q R S T U V W X Y Z

Michel Telo - Au Se Eu Te Pego chords

Highlighted       Show chord diagrams
-------------------------------------------------------------------------------
                             Ai Se Eu Te Pego - Michel Telo
-------------------------------------------------------------------------------
Tabbed by: Amirkhan Djumaniyazov
E-mail: omayer06@mail.ru

Tuning: Standart Guitar Tuning

SOLO:

e|---------------------------------------------------------------------------|
B|---------------------------------------------------------------------------|
G|---------------------------------------------------------------------------|
D|------2--5-------2--5-------2-3--2-3--2-0----------------------------------|
A|-3-3--------2-2--------0-0-----------------3-------------------------------|
E|---------------------------------------------------------------------------|

e|------2--5-------2--5-------2-3--2-3--2-0----------------------------------|
B|-3-3--------2-2--------0-0-----------------3-------------------------------|
G|---------------------------------------------------------------------------|
D|---------------------------------------------------------------------------|
A|---------------------------------------------------------------------------|
E|---------------------------------------------------------------------------|


************************************

CHORDS:


Play C G Am F through the whole song.

 C     G
   Nossa nossa 
      Am        F
   Assim você me mata
   C           G
   Ai se eu te pego 
      Am          F
   Ai ai se eu te pego 
 
   C          G
   Delicia delicia 
      Am         F
   Assim você me mata 
   C            G
   Ai se eu te pego 
      Am          F
   Ai ai se eu te pego 

 [C G Am F] x2
 
    C      G    Am   F
   Sábado na balada 
 C             G         Am   F
   A galera começou a dançar 
 C               G         Am   F
   E passou a menina mais linda 
            C           G      Am   F
   Tomei coragem e comecei a falar 

   C     G
   Nossa nossa 
      Am        F
   Assim você me mata
   C           G
   Ai se eu te pego 
      Am          F
   Ai ai se eu te pego 
 
   C          G
   Delicia delicia 
      Am         F
   Assim você me mata 
   C            G
   Ai se eu te pego 
      Am          F
   Ai ai se eu te pego 

 [C G Am F] x2

    C      G    Am   F
   Sábado na balada 
 C             G         Am   F
   A galera começou a dançar 
 C               G         Am   F
   E passou a menina mais linda 
            C           G      Am   F
   Tomei coragem e comecei a falar 

   C     G
   Nossa nossa 
      Am        F
   Assim você me mata
   C           G
   Ai se eu te pego 
      Am          F
   Ai ai se eu te pego 
 
   C          G
   Delicia delicia 
      Am         F
   Assim você me mata 
   C            G
   Ai se eu te pego 
      Am          F
   Ai ai se eu te pego

 [C G Am F] x2

   C     G
   Nossa nossa 
      Am        F
   Assim você me mata
   C           G
   Ai se eu te pego 
      Am          F
   Ai ai se eu te pego 
 
   C          G
   Delicia delicia 
      Am         F
   Assim você me mata 
   C            G
   Ai se eu te pego 
      Am          F
   Ai ai se eu te pego

 [C G Am F] x2

  Ai se eu te pego 
Tap to rate this tab
 
# A B C D E F G H I J K L M N O P Q R S T U V W X Y Z