Song name
# A B C D E F G H I J K L M N O P Q R S T U V W X Y Z

Michele Pesenti - Che Farala Che Dirala tab

Tuning - E A D F# B E      Initial Time Signature - 3/8 


 |            |            |            |            |            |
|5-------5---|5-------0---|5-------5---|5-------0---|5-3-5-6-5---|3-----------|
|6---6-5-3---|2-----0-2---|6---6-5-3---|2-----0-2---|6-------6---|5-------1---|
|------------|----3---3---|------------|----3---3---|------------|------------|
|0-------0---|------------|0-------0---|------------|3-------3---|------0-2---|
|------------|0-----------|------------|0-----------|------------|3-----------|
|------------|------------|------------|------------|------------|------------|


 |            |            |            |            |            |
|------0-1---|0-------0---|----0---1---|0-----------|1---1---3---|5---5-------|
|3-2-3-----3-|2-----------|3---3---0---|--------0-1-|3---1---0---|----------3-|
|------------|------------|------------|3---3---1-3-|------------|3-----------|
|0-------0---|------------|0---0---2---|3---3-------|0---2-------|------------|
|------------|0-----------|------------|------------|------------|0-----------|
|------------|------------|------------|------------|------------|------------|


 |            |            |            |            |            |
|5-------4---|5---3-1-0---|0-------0---|1---1---0---|----1-------|0-----------|
|2-0-2-3---2-|3-----------|2-0-2-3---2-|3---3---2---|3-------3---|2-----------|
|------------|------------|------------|------------|5-----------|------------|
|------------|--------0---|------------|0---0-------|----0-------|------------|
|0-------0---|1---3-------|0-----------|--------0---|------------|0-----------|
|------------|------------|------------|------------|3-----------|------------|

 |            |            |
|----1---1-3-|5---5-------|5-------4---|
|----3---3-0-|--------0-1-|3---1---0---|
|------------|3---3---1-3-|------------|
|----0---0-2-|3---3-------|0---2-------|
|------------|------------|------------|
|------------|------------|------------|


 |            |            |            |            |
|5---3-1-0---|0-------0---|1---1---0---|----1-------|0-----------||
|----------3-|2-0-2-3---2-|3---3---2---|3-------3---|2-----------||
|3-----------|------------|------------|5-----------|------------||
|------------|------------|0---0-------|----0-------|------------||
|0-----------|0-----------|--------0---|------------|0-----------||
|------------|------------|------------|3-----------|------------||


 |   |    |   |    |   |    |   |    |   |    |   |    |   |    |   |
|1---1-0-|--------|--------|--------|--------|----0---|1---1-0-|--------|
|3---3-2-|3-------|----1---|0-------|------0-|1-3---1-|3---3-2-|3-------|
|--------|5-------|----3---|--2-3-2-|3-2-3---|--------|--------|5-------|
|0---0---|----5---|--------|2-------|3-------|--------|0---0---|----5---|
|--------|--------|0-------|--------|--------|--------|--------|--------|
|--------|3-------|--------|--------|--------|--------|--------|3-------|


 |   |    |   |    |   |    |   |    |   |    |   |    |   |    |   |
|--------|--------|--------|--------|--------|0---1---|----0---|--------|
|----1---|0-------|--------|--------|2---3---|--------|--------|----3---|
|----3---|--2-3-2-|3-------|3-------|--------|1---3---|1-------|--------|
|--------|--------|3-------|3-------|2---3---|--------|--------|3-------|
|0-------|--------|--------|--------|0---5---|3-------|3-------|5-------|
|--------|--------|--------|--------|--------|----1---|--------|--------|


 |   |    |   |    |   |    |   |
|----5---|--3-1-0-|1---0---|--------|
|2-------|--------|--------|3-------|
|--------|--------|--------|----2---|
|2-------|--------|0-------|--------|
|0-------|0-------|----4---|2-------|
|--------|--------|--------|--------|


 |   |    |   |    |   |    |   |    |   |    |   |    |   |    |   |
|0---0---|--------|--------|--------|--------|--------|--------|--------||
|2-3-----|--3-2-0-|2---3---|3---2---|3---0---|--------|0-------|--------||
|3-------|--------|3---1-0-|--------|----1---|----3---|1-------|3-------||
|--------|--------|--------|2-------|0-------|0-------|----2---|4-------||
|0-------|0-------|0-------|0-------|--------|--------|--------|5-------||
|--------|--------|--------|--------|----3---|----2---|0-------|--------||
Tap to rate this tab
# A B C D E F G H I J K L M N O P Q R S T U V W X Y Z