Song name
# A B C D E F G H I J K L M N O P Q R S T U V W X Y Z

Michele Zarillo - Una Rosa Blu tab

 
E||-----------|-----------5----|-------5------5-|-----------5----|
B||-----------|------2-3-----2-|----3-----2-3---|------2-3-----2-|
G||-----------|----------------|----------------|----2-----------|
D||-----------|----4-----------|----------------|--0-------------|
A||-----------|--2-------------|----------------|----------------|
E||-----------|----------------|--3-------------|----------------|


-------0------|-----------5----|-------5------5-|-----------5----|
----3---------|------2-3-----2-|----3-----2-3---|------2-3-----2-|
--------------|----------------|----------------|----2---------2-|
--------------|----4-----------|----------------|--0-------------|
--0------0----|--2-------------|----------------|--------------0-|
--------------|----------------|--3-------------|----------------|
 
-------0------|-----------|
----3--2------|-----------|
----4---------|-----------|
--------------|-----------|
----2--4------|-----------|
--------------|-----------|
Tap to rate this tab
 
# A B C D E F G H I J K L M N O P Q R S T U V W X Y Z