Song name
# A B C D E F G H I J K L M N O P Q R S T U V W X Y Z

Michelle Branch - Everywhere tab

to all the weakest links out there heres how you play it right!!!!!!

intro
--3h9--------------------
-----4h10-------(3xs)----
---------10p1------------
-------------------------
-------------------------
-------------------------

verse
-----------------------------------2/13-----
-------------------------------9p4-----------
-----------------------8-7-6-5---------------
--------------------9----------------------
----------------3-5------------------------
-3/11/12/14/1h10---------------------------


chords: F,C,G X minor

solo
-12-11-10-9-8-9-10-11-12----------------------20-21/1--
------------------------13/12/11/1---------------------
----------------------------------16-17-16-17----------
-------------------------------------------------------
-------------------------------------------------------
-------------------------------------------------------

in order

intro
verse
chorus
20 times

add this to the intro verse and chorus to make it more nice

-2/9--------------------------------------------------------
----8/6------------------------------------------------------
-------7h10--------------------------------10times--------
-----------8/9-9h13--------------------------------------
-------------------12-13--------------------------------------
------------------------2-5-6-8/9-------------------------------

thats about all i can help you with hope youll like it guys and gals 
this is my first tab so enjoy take the day off and play it 


magical phudi
Tap to rate this tab
# A B C D E F G H I J K L M N O P Q R S T U V W X Y Z