Song name
# A B C D E F G H I J K L M N O P Q R S T U V W X Y Z

Michelle Branch - One Of These Days tab

--------------------------------------------|
         one of these days-michelle branch -|
Tabbed by:viscious
Email:
capo 1st fret
Tuning:standard
intro/verse/chorus
e|-------------------1----------------------------------------------------------------|
B|--------1----------3------------3---------------3-----------------------------------|
G|-----0----0----2-------2-----0-----0---------------0--------------------------------|
D|---2--------3-------------0-----------------0---------------------------------------|
A|----------------------------------------2-------------------------------------------|
E|------------------------------------------------------------------------------------|
     i didnt notice.....

e|-------------------1-----0--------------------------------------------------------|
B|------------3--------3---------------3---------------3----------------------------|
G|-------0-------0-----------------2-----2----------------0-------------------------|
D|----2------------------------0-------------------0--------------------------------|
A|----------------------------------------------2-----------------------------------|
E|----------------------------------------------------------------------------------|
     but that led me....


Bridge:
e|------------------------------3----------------------------------------------------|
B|---------------1--------------3-------------1----------1---------------------------|
G|---------------0----------------------------2----------2---------------------------|
D|--------2---------2--------------0-------2------2----2-----------------------------|
A|----3--------------------2------------0------------0-------------------------------|
E|-----------------------3-----------------------------------------------------------|
    what would you do...

e|--------------1---------------1------------------------------------------------|
B|--------------1---------------1------------------------------------------------|
G|--------------2----------------------------------------------------------------|
D|--------------------3-----3----------------------------------------------------|
A|------3----------------3-------------------------------------------------------|
E|--1----------------------------------------------------------------------------|
     oh if i could...

Adlib
Just strum these chords:
 Am7  Dm  G

End on a G

That's it!!!!!  Michellle Branch rules!!!!!!!!!!!
Tap to rate this tab
 
# A B C D E F G H I J K L M N O P Q R S T U V W X Y Z