Song name
# A B C D E F G H I J K L M N O P Q R S T U V W X Y Z

Michelle Branch - All You Wanted Acoustic tab

Michelle Branch - All You Wanted (acoustic)

Album: Broken Bracelet
Instrument: Guitar
Tuning: eBGDAE

Tabbed By: Nichola

Ive seen many tabs of the acoustic version of this song and to me they just dont seem 
This is my version which works well for me. If any changes / improvements are need please 
me.

CAPO ON THE 1ST FRET

This is the basic rhythem throughout the intro verses

         Em7        Dsus    Cadd9         G
e||-------3-3-3-------3-----3-3-3---------3-3-----|
B||-------3-3-3-------3-----3-3-3---------3-3-----|
G||-------0-0-0-------2-----0-0-0---------0-0-----|
D||-------2-2-2---0-0-0-----2-2-2---------0-0-----|
A||--0h2--2-2-2-----------3-3-3-3---------2-2-----|
E||-------0-0-0----------------------3-3--3-3-----|
          d u d       d     d u d         d u

Verse 1

          Em7        Dsus    Cadd9         G
e||-------3-3-3-------3-----3-3-3---------3-3-----|
e||-------3-3-3-------3-----3-3-3---------3-3-----|
B||-------3-3-3-------3-----3-3-3---------3-3-----|
G||-------0-0-0-------2-----0-0-0---------0-0-----|
D||-------2-2-2---0-0-0-----2-2-2---------0-0-----|
A||--0h2--2-2-2-----------3-3-3-3---------2-2-----|
E||-------0-0-0----------------------3-3--3-3-----|
          d u d       d     d u d         d u

           I     wanted    to be       like you

          Em7       Dsus    Cadd9          G
e||-------3-3-3-------3-----3-3-3---------3-3-----|
B||-------3-3-3-------3-----3-3-3---------3-3-----|
G||-------0-0-0-------2-----0-0-0---------0-0-----|
D||-------2-2-2---0-0-0-----2-2-2---------0-0-----|
A||--0h2--2-2-2-----------3-3-3-3---------2-2-----|
E||-------0-0-0----------------------3-3--3-3-----|
          d u d       d     d u d         d u
          I         wanted   everything

          Em7       Dsus    Cadd9          G
e||-------3-3-3-------3-----3-3-3---------3-3-----|
B||-------3-3-3-------3-----3-3-3---------3-3-----|
G||-------0-0-0-------2-----0-0-0---------0-0-----|
D||-------2-2-2---0-0-0-----2-2-2---------0-0-----|
A||--0h2--2-2-2-----------3-3-3-3---------2-2-----|
E||-------0-0-0----------------------3-3--3-3-----|
          d u d       d     d u d         d u
         So        i tryed  to be like you

          Em7        Dsus    Cadd9         G
e||-------3-3-3-------3-----3-3-3---------3-3------2-2-2---2-2-2--|
B||-------3-3-3-------3-----3-3-3---------3-3------3-3-3---3-3-3--|
G||-------0-0-0-------2-----0-0-0---------0-0------2-2-2---2-2-2--|
D||-------2-2-2---0-0-0-----2-2-2---------0-0------0-0-0---0-0-0--|
A||--0h2--2-2-2-----------3-3-3-3---------2-2------0-0-0---0-0-0--|
E||-------0-0-0----------------------3-3--3-3----3-3-3-3-3-3-3-3--|
          d u d       d     d u d         d u      d u d   d u d
        And      i    got  swept       away

Verse 2 : same chords as verse 1

I didnt know that
You were so cold and
you needed someone to show you the way
so i took your hand and
we figured out that
when the tide comes ill take you away

Chorus
     E   C   G   D
e||--0---0---3---2---|
B||--0---1---3---3---|
G||--0---0---0---2---|
D||--2---2---0---0---|
A||--2---3---2-------|
E||--0-------3-------|

E      C
If you want to
G     D
I can save you
E     C        G         D
I can take you away from here
E         C
So lonely inside
G       D
So busy out there
E           C          G            D
And all you wanted was somebody who cares

Em7, Dsus, Cadd9, G

Verse 2: same chords / tab as verse 1

Im sinking slowly
So hurry hold me
Your hand is all i have
To me hanging on
Please can you tell me
So i can finaly see
Where you go when you gone

CHORUS

Bridge:

     C     ?     Am    Bm     G    D/F#
e||--0-----0------0-----0-----3-----2-|
B||--1-----3------1-----3-----3-----3-|
G||--0-----0------2-----4-----0-----2-|
D||--2-----4------2-----4-----0-----0-|
A||--3-----5------0-----2-----2-----0-|
E||---------------------------3-----2-|

C       ?                       C
All you wanted was somebody who cares
        ?                      C    Am   Bm   G   D/F#
If you need me you know ill be there

CHORUS

E7             Dsus
Please can you tell me
Cadd9     G
So i can finaly see
E7        Dsus           Cadd9
Where you go when you're gone
Tap to rate this tab
 
# A B C D E F G H I J K L M N O P Q R S T U V W X Y Z