Guitaretab - guitar tabs
Song name
# A B C D E F G H I J K L M N O P Q R S T U V W X Y Z

Michelle Branch - Sweet Misery Acoustic tab

Sweet Misery (Acoustic Version)
By: Michelle Branch
From the album: Broken Bracelet
Tabbed out by Candice ::.Secret surname.::

This is my first tab. But it seems pretty accurate to my ears. I'm not sure of the real 

strumming but you can play this song with this because the strumming still kinda fits.

Standard Tuning

Intro
       C            G         Am    G
E|-----0--0-0-3-3-3--3|----0--0-0--3-3-3--3|
B|-----1--1-1-3-3-3--3|----1--1-1--3-3-3--3|
G|-----0--0-0-0-00--0|----2--2-2--0-0-0--0|  2x
D|-----2--2-2-0-0-0--0|----2--2-2--0-0-0--0|
A|--3--3--3-3-2-2-2--2|-0--0--0-0--2-2-2--2|
E|-----x--x-x-3-3-3--3|----x--x-x--3-3-3--3|

Verse

        
E|------0--0-0--0-0-0-------3--3-3--3-3-3-3------0--0-0--0-0-0------3--3-3--3-3-3-3-|
B|------1--1-1--1-1-1-------3--3-3--3-3-3-3------1--1-1--1-1-1------3--3-3--3-3-3-3-|
G|------0--0-0--0-0-0------0--0-0--0-0-0-0------2--2-2--2-2-2------0--0-0--0-0-0-0-|
D|----2-2--2-2--2-2-2-------0--0-0--0-0-0-0----2-2--2-2--2-2-2------0--0-0--0-0-0-0-| 2x
A|--3---3--3-3--3-3-3-----2-2--2-2--2-2-2-2--0---0--0-0--0-0-0----2-2--2-2--2-2-2-2-|
E|------x--x-x--x-x-x---3---3--3-3--3-3-3-3------x--x-x--x-x-x--3---3--3-3--3-3-3-3-|


CHORUS:

E|------0--0-0-----3-----3-3-3--3-3-3--|
B|------1--1-1-----1-----3-3-3--3-3-3--|
G|------2--2-2-----2-----0-0-0--0-0-0--|
D|---3--3--3-3--3--3-----0-0-0--0-0-0--|
A|------x--x-x-----x---2-2-2-2--2-2-2--|
E|------x--x-x-----x--3--3-3-3--3-3-3--|
[ Tab from: http://www.guitaretab.com/m/michelle-branch/51221.html ]
Bridge:
E|----0--0-0--3-3-3--3----3-3-3--3-3--3-|----0--0-0--3-3-3--3----0--0-0--3-3-3--3--|
B|----1--1-1--3-3-3--3----1-1-1--1-1--1-|----1--1-1--3-3-3--3----1--1-1--3-3-3--3--|
G|----0--0-0--0-0-0--0----2-2-2--2-2--2-|----0--0-0--0-0-0--0----2--2-2--0-0-0--0--|
D|----2--2-2--0-0-0--0--3-3-3-3--3-3--3-|----2--2-2--0-0-0--0----2--2-2--0-0-0--0--|
A|--3-3--3-3--2-2-2--2----x-x-x--x-x--x-|--3-3--3-3--2-2-2--2--0-0--0-0--2-2-2--2--|
E|----x--x-x--3-3-3--3----x-x-x--x-x--x-|----x--x-x--3-3-3--3----x--x-x--3-3-3--3--|


Order:

INTRO

VERSE
I was lost and you were found
You seem to stand solid ground

I was weak and you were strong
And me and my guitar we strummed along


CHORUS
Sweeeet misery you cause me
That's what you called me
Sweeeet misery you cause me

INTRO

VERSE
I was blind but, oh, how you could see
You saw the beauty in everything, everything in me

CHORUS
Sweeeet misery you cause me
that's what you called me
Sweeeet misery you cause me

BRIDGE
ANd in my heart I see
Oh-oh What you're doing to me
And in my heart I see
Oh-oh just how you wanted it to be

INTRO

CHORUS
Sweeet Misery you cause me
That's what you called me
Sweeet MIsery you cause me

BRIDGE
ANd in my heart I see
Oh-oh What you're doing to me
And in my heart I see
Oh-oh just how you wanted it to be

INTRO

Verse
I was weak and you were strong
And me and my guitar we strummed along...


::.END.::

Comments? send it to candicemymail@yahoo.com
Related for Sweet Misery Acoustic tab