Song name
# A B C D E F G H I J K L M N O P Q R S T U V W X Y Z

Michelle Malone - Grace tab

-------------------------------------------------------------------------------
			     GRACE - Phil Wickham
-------------------------------------------------------------------------------
Tabbed by:xx_mclovin_xx
Email:

Tuning: Half Step Down

I'm almost positive this is perfect, I saw him play and this is what it looks like

*Strumming Pattern and Number of Strokes Isn't Shown*

Intro
eb|-0-0-0-0-0-0--0-0-0-0-0-0-0-0-0-0-0-0-0-0-0-0-0-0-0-0-|
Bb|-0-0-0-0-0-0--0-0-0-0-0-0-0-0-0-0-0-0-0-0-0-0-0-0-0-0-|
Gb|-0-0-0-0-0-0--0-0-0-0-0-0-0-5-5-5-5-5-5-0-0-0-0-0-0-0-|
Db|-9-9-9-9-9-9--4-4-4-4-4-4-4-7-7-7-7-7-7-2-2-2-2-2-2-2-|
Ab|-101010101010-5-5-5-5-5-5-5-7-7-7-7-7-7-3-3-3-3-3-3-3-|
Eb|-101010101010-5-5-5-5-5-5-5-0-0-0-0-0-0-3-3-3-3-3-3-3-|x2


Verse
eb|-0-0-0-0-0-0--0-0-0-0-0-0-0-0-0-0-0-0-0-0-0-0-0-0-0-0-|
Bb|-0-0-0-0-0-0--0-0-0-0-0-0-0-0-0-0-0-0-0-0-0-0-0-0-0-0-|
Gb|-0-0-0-0-0-0--0-0-0-0-0-0-0-5-5-5-5-5-5-0-0-0-0-0-0-0-|
Db|-9-9-9-9-9-9--4-4-4-4-4-4-4-7-7-7-7-7-7-2-2-2-2-2-2-2-|
Ab|-101010101010-5-5-5-5-5-5-5-7-7-7-7-7-7-3-3-3-3-3-3-3-|
Eb|-101010101010-5-5-5-5-5-5-5-0-0-0-0-0-0-3-3-3-3-3-3-3-|x2


Pre Chorus
eb|-3-3-3-3-3-3-3-3-3-3-3-3-3-3-3-3|
Bb|-3-3-3-3-3-3-3-3-3-3-3-3-3-3-3-3|
Gb|-0-0-0-0-0-0-0-0-0-0-0-0-0-0-0-0|
Db|-2-2-2-2-2-2-2-2-0-0-0-0-0-0-0-0|
Ab|-3-3-3-3-3-3-3-3-2-2-2-2-2-2-2-2|
Eb|-0-0-0-0-0-0-0-0-3-3-3-3-3-3-3-3|x2

eb|-3-3-3-3-3-3-3-3-0-0-0-0-0-0-0-0-2-2-2-2-2-2-3-3-2-2-|
Bb|-3-3-3-3-3-3-3-3-1-1-1-1-1-1-1-1-3-3-3-3-3-3-3-3-3-3-|
Gb|-0-0-0-0-0-0-0-0-2-2-2-2-2-2-2-2-2-2-2-2-2-2-2-2-2-2-|
Db|-2-2-2-2-2-2-2-2-2-2-2-2-2-2-2-2---------------------|
Ab|-3-3-3-3-3-3-3-3-------------------------------------|
Eb|-0-0-0-0-0-0-0-0-------------------------------------|


Chorus
eb|-3-3-3-3-3-3-3-3-3-3-3-3-3-2-2-2-2-2-3-3-3-3-3-3-3-3-3-|
Bb|-3-3-3-3-3-3-3-3-3-3-3-3-3-3-3-3-3-3-3-3-3-3-3-3-3-3-3-|
Gb|-0-0-0-0-0-0-0-0-0-0-0-0-0-2-2-2-2-2-2-2-0-0-0-0-0-0-0-|
Db|-0-0-0-0-0-0-2-2-2-2-2-2-2---------------2-2-2-2-2-2-2-|
Ab|-2-2-2-2-2-2-2-2-2-2-2-2-2---------------3-3-3-3-3-3-3-|
Eb|-3-3-3-3-3-3-0-0-0-0-0-0-0---------------0-0-0-0-0-0-0-|

eb|-3-3-3-3-3-3-0-0-0-0-0-0-0-2-2-2-2-2-3-3-3-3-3-3-3-3-3-|
Bb|-3-3-3-3-3-3-0-0-0-0-0-0-0-3-3-3-3-3-3-3-3-3-3-3-3-3-3-|
Gb|-0-0-0-0-0-0-5-5-5-5-5-5-5-2-2-2-2-2-2-2-0-0-0-0-0-0-0-|
Db|-0-0-0-0-0-0-7-7-7-7-7-7-7---------------2-2-2-2-2-2-2-|
Ab|-2-2-2-2-2-2-7-7-7-7-7-7-7---------------3-3-3-3-3-3-3-|
Eb|-3-3-3-3-3-3-0-0-0-0-0-0-0---------------0-0-0-0-0-0-0-|


Verse 2
eb|-0-0-0-0-0-0--0-0-0-0-0-0-0-0-0-0-0-0-0-0-0-0-0-0-0-0-|
Bb|-0-0-0-0-0-0--0-0-0-0-0-0-0-0-0-0-0-0-0-0-0-0-0-0-0-0-|
Gb|-0-0-0-0-0-0--0-0-0-0-0-0-0-5-5-5-5-5-5-0-0-0-0-0-0-0-|
Db|-9-9-9-9-9-9--4-4-4-4-4-4-4-7-7-7-7-7-7-2-2-2-2-2-2-2-|
Ab|-101010101010-5-5-5-5-5-5-5-7-7-7-7-7-7-3-3-3-3-3-3-3-|
Eb|-101010101010-5-5-5-5-5-5-5-0-0-0-0-0-0-3-3-3-3-3-3-3-|x2


Pre Chorus 2
eb|-3-3-3-3-3-3-3-3-3-3-3-3-3-3-3-3|
Bb|-3-3-3-3-3-3-3-3-3-3-3-3-3-3-3-3|
Gb|-0-0-0-0-0-0-0-0-0-0-0-0-0-0-0-0|
Db|-2-2-2-2-2-2-2-2-0-0-0-0-0-0-0-0|
Ab|-3-3-3-3-3-3-3-3-2-2-2-2-2-2-2-2|
Eb|-0-0-0-0-0-0-0-0-3-3-3-3-3-3-3-3|x2

eb|-3-3-3-3-3-3-3-3-0-0-0-0-0-0-0-0-2-2-2-2-2-2-3-3-2-2-|
Bb|-3-3-3-3-3-3-3-3-1-1-1-1-1-1-1-1-3-3-3-3-3-3-3-3-3-3-|
Gb|-0-0-0-0-0-0-0-0-2-2-2-2-2-2-2-2-2-2-2-2-2-2-2-2-2-2-|
Db|-2-2-2-2-2-2-2-2-2-2-2-2-2-2-2-2---------------------|
Ab|-3-3-3-3-3-3-3-3-------------------------------------|
Eb|-0-0-0-0-0-0-0-0-------------------------------------|


Chorus 2
eb|-3-3-3-3-3-3-3-3-3-3-3-3-3-2-2-2-2-2-3-3-3-3-3-3-3-3-3-|
Bb|-3-3-3-3-3-3-3-3-3-3-3-3-3-3-3-3-3-3-3-3-3-3-3-3-3-3-3-|
Gb|-0-0-0-0-0-0-0-0-0-0-0-0-0-2-2-2-2-2-2-2-0-0-0-0-0-0-0-|
Db|-0-0-0-0-0-0-2-2-2-2-2-2-2---------------2-2-2-2-2-2-2-|
Ab|-2-2-2-2-2-2-2-2-2-2-2-2-2---------------3-3-3-3-3-3-3-|
Eb|-3-3-3-3-3-3-0-0-0-0-0-0-0---------------0-0-0-0-0-0-0-|

eb|-3-3-3-3-3-3-0-0-0-0-0-0-0-2-2-2-2-2-3-3-3-3-3-3-3-3-3-|
Bb|-3-3-3-3-3-3-0-0-0-0-0-0-0-3-3-3-3-3-3-3-3-3-3-3-3-3-3-|
Gb|-0-0-0-0-0-0-5-5-5-5-5-5-5-2-2-2-2-2-2-2-0-0-0-0-0-0-0-|
Db|-0-0-0-0-0-0-7-7-7-7-7-7-7---------------2-2-2-2-2-2-2-|
Ab|-2-2-2-2-2-2-7-7-7-7-7-7-7---------------3-3-3-3-3-3-3-|
Eb|-3-3-3-3-3-3-0-0-0-0-0-0-0---------------0-0-0-0-0-0-0-|


Bridge
eb|-3-3-3-3-3-3-3-3-3-3-3-3-3-2-2-2-2-2-3-3-3-3-3-3-3-3-3-|
Bb|-3-3-3-3-3-3-3-3-3-3-3-3-3-3-3-3-3-3-3-3-3-3-3-3-3-3-3-|
Gb|-0-0-0-0-0-0-0-0-0-0-0-0-0-2-2-2-2-2-2-2-0-0-0-0-0-0-0-|
Db|-2-2-2-2-2-2-2-2-2-2-2-2-2---------------2-2-2-2-2-2-2-|
Ab|-2-2-2-2-2-2-2-2-2-2-2-2-2---------------3-3-3-3-3-3-3-|
Eb|-0-0-0-0-0-0-0-0-0-0-0-0-0---------------0-0-0-0-0-0-0-|

eb|-3-3-3-3-3-3-3-3-3-3-3-3-3-2-2-2-2-2-3-3-3~|
Bb|-3-3-3-3-3-3-3-3-3-3-3-3-3-3-3-3-3-3-3-3-3~|
Gb|-0-0-0-0-0-0-0-0-0-0-0-0-0-2-2-2-2-2-2-2-0~|
Db|-2-2-2-2-2-2-2-2-2-2-2-2-2---------------0~|
Ab|-2-2-2-2-2-2-2-2-2-2-2-2-2---------------2~|
Eb|-0-0-0-0-0-0-0-0-0-0-0-0-0---------------3~|


Pre Chorus 3
eb|-3~-3~-3~-3~-3~-0~-2-~3~-2~-|
Bb|-3~-3~-3~-3~-3~-1~-3~-3~-3~-|
Gb|-0~-0~-0~-0~-0~-2~-2~-2~-2~-|
Db|-2~-0~-2~-0~-2~-2~----------|
Ab|-3~-2~-3~-2~-3~-0~----------|
Eb|-0~-3--0--3~-0~-0~----------|


Chorus 3
eb|-3-3-3-3-3-3-3-3-3-3-3-3-3-2-2-2-2-2-3-3-3-3-3-3-3-3-3-|
Bb|-3-3-3-3-3-3-3-3-3-3-3-3-3-3-3-3-3-3-3-3-3-3-3-3-3-3-3-|
Gb|-0-0-0-0-0-0-0-0-0-0-0-0-0-2-2-2-2-2-2-2-0-0-0-0-0-0-0-|
Db|-0-0-0-0-0-0-2-2-2-2-2-2-2---------------2-2-2-2-2-2-2-|
Ab|-2-2-2-2-2-2-2-2-2-2-2-2-2---------------3-3-3-3-3-3-3-|
Eb|-3-3-3-3-3-3-0-0-0-0-0-0-0---------------0-0-0-0-0-0-0-|

eb|-3-3-3-3-3-3-0-0-0-0-0-0-0-2-2-2-2-2-3-3-3-3-3-3-3-3-3-|
Bb|-3-3-3-3-3-3-0-0-0-0-0-0-0-3-3-3-3-3-3-3-3-3-3-3-3-3-3-|
Gb|-0-0-0-0-0-0-5-5-5-5-5-5-5-2-2-2-2-2-2-2-0-0-0-0-0-0-0-|
Db|-0-0-0-0-0-0-7-7-7-7-7-7-7---------------2-2-2-2-2-2-2-|
Ab|-2-2-2-2-2-2-7-7-7-7-7-7-7---------------3-3-3-3-3-3-3-|
Eb|-3-3-3-3-3-3-0-0-0-0-0-0-0---------------0-0-0-0-0-0-0-|

eb|-3-3-3-3-3-3-3-3-3-3-3-3-3-2-2-2-2-2-3-3-3-3-3-3-3-3-3-|
Bb|-3-3-3-3-3-3-3-3-3-3-3-3-3-3-3-3-3-3-3-3-3-3-3-3-3-3-3-|
Gb|-0-0-0-0-0-0-0-0-0-0-0-0-0-2-2-2-2-2-2-2-0-0-0-0-0-0-0-|
Db|-0-0-0-0-0-0-2-2-2-2-2-2-2---------------2-2-2-2-2-2-2-|
Ab|-2-2-2-2-2-2-2-2-2-2-2-2-2---------------3-3-3-3-3-3-3-|
Eb|-3-3-3-3-3-3-0-0-0-0-0-0-0---------------0-0-0-0-0-0-0-|

End On
eb|-3~-|
Bb|-3~-|
Gb|-0~-|
Db|-0~-|
Ab|-2~-|
Eb|-3~-|


Lyrics
Verse 1
The sky is grey and the light is far
The sea is a rage within my heart
I turn my sight to the crashing waves
I cry in the night just to be saved
Pre Chorus 1
Cause I need eyes to be my guide
I need a voice that's louder than mine
I need hope and I need You 
Cause I can't do this alone
Chorus 1
Grace I call Your name
Oh won't Your smile fall over me
I'm cracked and dry on hands and knees
Oh sweet grace rain down on me I need You grace
Verse 2
I pray for dawn a new day to live
I pray for mercy only Jesus gives
Though darkness falls and a million cry
I believe over all there’s a greater light shining for us 
Pre Chorus 2
Cause I need eyes to be my guide
I need a voice that's louder than mine
I need hope and I need You 
Cause I can't do this alone
Chorus 2
Grace I call Your name
Oh won't Your smile fall over me
I'm cracked and dry on hands and knees
Oh sweet grace rain down on me I need You grace
Bridge 
Come down and save me
Pre Chorus 3
Cause I need eyes to be my guide
I need a voice that's louder than mine
I need hope and I need You 
Cause I can't do this alone
Chorus 3
Grace I call Your name
Oh won't Your smile fall over me
I'm cracked and dry on hands and knees
Oh sweet grace rain down on me 
I need You grace
I call you grace
I need you grace
Amazing grace
I need you grace


| /  slide up
| \  slide down
| h  hammer-on
| p  pull-off
| ~  let it ring
| +  harmonic
| x  Mute note
===============================================================================
Tap to rate this tab
# A B C D E F G H I J K L M N O P Q R S T U V W X Y Z