Song name
# A B C D E F G H I J K L M N O P Q R S T U V W X Y Z

Michigan - Compte A Rebours tab

-capo 2-

intro
e|-----------------0---------------------|
B|-3---3---3---0-3---0-------0-1---1p0---|
G|---0---0---0---------0-0-2-----0-----0-|
D|---------------------------------------| (x2)
A|---------------------------------------|
E|---------------------------------------|

couplets;
G, G, Em, C

refrain
Em, C, D, D

pre-couplet (?)(intro modifié)
e|-----------------0-----------------------|
B|-3---3---3---0-3---0-0-----1-------------|(petit bout trop compliqué pour rose.)
G|---0---0---0-----------2-0---------------|
D|-----------------------------------------| (x2)
A|-----------------------------------------|
E|-----------------------------------------|

couplet

refrain

bridge/outro
Cadd9, G, Em, D

intro
finir en G
www.michiganmusique.com
Tap to rate this tab
# A B C D E F G H I J K L M N O P Q R S T U V W X Y Z