Song name
# A B C D E F G H I J K L M N O P Q R S T U V W X Y Z

Michou - Missing Me Now tab

Missing Me Now by Michou
Just listen to the song to figure out rhythm! That's all there is to it!
Standard Tuning (EADGbe)

Verse
   
|----------------|--------------|----------------|--------------|
|----------------|--------------|----------------|--------------|
|-4-4-4----7-7---|-6-6-6--------|-4-4-4----7-7---|-6-6-6--------|
|-0-0-0----0-0---|-0-0-0--------|-0-0-0----0-0---|-0-0-0--------|
|----------------|--------------|----------------|--------------|
|-3-3-3----7-7---|-5-5-5--------|-3-3-3----7-7---|-5-5-5--------|


 Chorus
  
|----------------|--------------------|-------------------|-----------------|
|----------------|--------------------|-------------------|-----------------|
|-4--4-4-(4)-7---|-6--6-6-(6)-6-6-(6)-|-4--4-4-(4)-7---6--|-6-6-(6)-6-6-(6)-|
|-0--0-0-(0)-0---|-0--0-0-(0)-0-0-(0)-|-0--0-0-(0)-0---0--|-0-0-(0)-0-0-(0)-|
|----------------|--------------------|-------------------|-----------------|
|-3--3-3-(3)-7---|-5--5-5-(5)-5-5-(5)-|-3--3-3-(3)-7---5--|-5-5-(5)-5-5-(5)-|
Tap to rate this tab
# A B C D E F G H I J K L M N O P Q R S T U V W X Y Z