Song name
# A B C D E F G H I J K L M N O P Q R S T U V W X Y Z

Michou - The Moon And The Sun tab

-------------------------------------------------------------------------------
                            The Moon and the Sun - Michou
-------------------------------------------------------------------------------
Tabbed by: Vedorius
Email: khonda49@gmail.com

Tuning: Standard

Notes:
In the intro/verse, throw 4 taps in between each chord to recreate
the tapping in the song. The exception to this, is the last repeat
through, when the final chord just rings in silence. I've tried to
indicate the timing in the pre-chorus, but it might take some
practicing to get it right, anyways. Cheers, and good luck!


Intro/Verse:          - This repeats 4x -- should end with "into screenplays"
e|----------------------|----------------------------------------------------|
B|-3--2--7--0-----3--2--|----------------------------------------------------|
G|-------------2--------|----------------------------------------------------|
D|----------------------|----------------------------------------------------|
A|-2--0--5--------2--0--|----------------------------------------------------|
E|----------3--2--------|----------------------------------------------------|


Pre-Chorus:
e|-----------------------------------------------------------------2---------|
B|-3-------3--1-------1--7--5--3---------------------------3-----------------|
G|-------------------------------4-------4/7---6-------6------0--------4-----|
D|-----0---------0-------0----------0-------------0-----------------------0--|
A|-2-----2----1-----1--------------------------0-----0-----2----2------------|
E|-------------------------------3----3--------------------------------3---3-| 

  one more   run...   moon....  sun....  but  i'll....    remain... unchanged

e|---------------------------2-------------------------0----0--0--0--0-------|
B|------------------3----------------------------------3----3--3--3--3-------|
G|-4/7---6-----6----------------4----4---2-------2-----0----0--0--0--0-------|
D|----------0----------0----------0----------2-----0---0----0--0--0--0-------|
A|-------0----0-----2----2-----------------0---0-------x----x--x--x--x-------|
E|------------------------------3--3-------------------3----3--3--3--3-------| 
   
   like  pain...   always....  same....



Chorus:                    
e|-0-------0-------0-----0------2-----2-------0--|---------------------------|
B|-0-------0-------0-----0------2-----2-------2--|---------------------------|
G|-4-------6-------7-----4------2-----4-------2--|---repeat x 3--------------|
D|-5-------7-------7-----5------4-----4-------2--|---------------------------|
A|-5-------7-------5-----5------4-----2-------0--|---------------------------|
E|-3-------5-------------3------2-----x----------|---------------------------|  
  
Sailor... sail... god...gale...you...fuck... here


Pre-Chorus:
e|-----------------------------------------------------------------2---------|
B|-3-------3--1-------1--7--5--3---------------------------3-----------------|
G|-------------------------------4-------4/7---6-------6------0--------4-----|
D|-----0---------0-------0----------0-------------0-----------------------0--|
A|-2-----2----1-----1--------------------------0-----0-----2----2------------|
E|-------------------------------3----3--------------------------------3---3-| 

  one more   run...    moon.... sun....  but  i'll....    remain... unchanged

e|---------------------------2-------------------------0---------------------|
B|------------------3----------------------------------3--|------------------|
G|-4/7---6-----6----------------4----4---2-------2-----0--|------------------|
D|----------0----------0----------0----------2-----0---0--|------------------|
A|-------0----0-----2----2-----------------0---0-------x--|------------------|
E|------------------------------3--3-------------------3--|------------------| 
   
   like  pain...   always....  same....



Chorus:                    
e|-0-------0-------0-----0------2-----2-------0--|---------------------------|
B|-0-------0-------0-----0------2-----2-------2--|---------------------------|
G|-4-------6-------7-----4------2-----4-------2--|---hold final chord--------|
D|-5-------7-------7-----5------4-----4-------2--|---------------------------|
A|-5-------7-------5-----5------4-----2-------0--|---------------------------|
E|-3-------5-------------3------2-----x----------|---------------------------|  
  
Sailor... sail... god...gale...you...fuck... here

************************************

| /   slide up
| \   slide down
| h   hammer-on
| p   pull-off
| ~   vibrato
| +   harmonic
| x   Mute note
| b   Bend
| pb  Pre-bend
| br  Bend release
| pbr Pre-bend release
| brb Bend release bend

************************************
Tap to rate this tab
# A B C D E F G H I J K L M N O P Q R S T U V W X Y Z