Song name
# A B C D E F G H I J K L M N O P Q R S T U V W X Y Z

Mick Harvey - Planetarium tab

e|-0----------------------------------------------------------------2-0-2----|
B|-0---0-1-0-----0------0-1-0-------0---------0----------------0----3-3-3----|
G|-0----------------------------------2-----2---2-----0------2---2--2-2-2----|
D|-2---------2-1-----0--------0-------------------------------------0-0-0----|
A|-2----------------------------2/4-------3-------3-2----2-3-----------------|
E|-0-------------------------------------------------------------------------|

e|-0---0---0---0----------------------2-0-2---0---0---0---0------------------|
B|-0---0---0---0----------------------3-3-3---0---0---0---0-----0-----0------|
G|-0---0---0---0-------0-----0-----0--2-2-2---0---0---0---0-------0-----0----|
D|-2---5---5---5-----5-----5-----5----0-0-0---2---5---5---5------------------|
A|-2---6---5---4---3-----2-----3--------------2---6---5---4---3-----2--------|
E|-0------------------------------------------0------------------------------|

e|--------2-0-2---0---0---0---0----------------------2-0-2---0---------------|
B|---0----3-3-3---0---0---0---0-----0-----0-----0----3-3-3---0---------------|
G|-----0--2-2-2---0---0---0---0-------0-----0-----0--2-2-2---0-----0---0---0-|
D|--------0-0-0---2---5---5---5----------------------0-0-0---2---5---5---5---|
A|-3--------------2---6---5---4---3-----2-----3--------------2---3---2---3---|
E|----------------0------------------------------------------0---------------|

e|-2-0-2---0------+7---------------------------------------------------------|
B|-3-3-3---0------+7---------------------------------------------------------|
G|-2-2-2---0------+7---------------------------------------------------------|
D|-0-0-0---2------+7---------------------------------------------------------|
A|---------2------+7---------------------------------------------------------|
E|---------0------+7---------------------------------------------------------|
Tap to rate this tab
 
# A B C D E F G H I J K L M N O P Q R S T U V W X Y Z