Song name
# A B C D E F G H I J K L M N O P Q R S T U V W X Y Z

Mick Jagger - God Gave Me Everything tab

   God Gave Me Everything -- Lenny's Solo

   Transcription by Diogo Gon?alves
   Cysoul@hotmail.com


   ~ -- Vibrato
   p -- Pull-Off
   / -- Slide "Up"
   \ -- Slide "Down"
   b -- Bend
   X\-- Pick Slide
     \


   E|----12p9--9--9p7-7--9~--|---9--11--12~---13/15\13----------------------------|
   B|--------12------9-------|------------------------9~-----7---/7~-------7------|
   G|------------------------|---------------------------------9---------9--------|
   D|------------------------|-----------------------------------------------9----|
   A|------------------------|----------------------------------------------------|
   E|------------------------|----------------------------------------------------|


   E|--------------------------------9-9-9-9-9-11--11h12-12-12/14--12-14-b15~~----|
   B|----9-9-9-9-9-9-9-9/12--9-12~------------------------------------------------|
   G|-----------------------------------------------------------------------------|
   D|-----------------------------------------------------------------------------|
   A|-----------------------------------------------------------------------------|
   E|-----------------------------------------------------------------------------|


   E|-----------------------------------------------------------------------------|
   B|------X\---------------------------------------------------------------------|
   G|------X\\--------------------------------------------------------------------|
   D|--------\--------------------------------------------------------------------|
   A|-----------------------------------------------------------------------------|
   E|-----------------------------------------------------------------------------|

   Well...It's My First Submitted Tab..........
   I Personally Think This Tab is Pretty Accurate , If Not 100% Correct...
   Enjoy !

   Take Care !
Tap to rate this tab
# A B C D E F G H I J K L M N O P Q R S T U V W X Y Z