Song name
# A B C D E F G H I J K L M N O P Q R S T U V W X Y Z

Mick Rippon - Existing tab

http://www.mickrippon.com/

Existing by Mick Rippon
tabbed by Speaktrap - this is first version (may be innaccurate - I don't have guitar at 
moment)
(my first tab)
Play fingerstyle.

D#----------------------------------------------------------|
A#-3---------3/5---------0h3-0---------------0h3-0----------|
F#--------0-------------------------------0-----------------|
C#----0h2-------------4----------------4--------------------|
G#-3---------------5----------------2-----------------------|
d#-------------------------------0--------------------------|


D#-0--2--2/3---------3/5---------0h3-0------------------------------------|
A#---------------------------------------------------0h3-0----------------|
F#------------------------------------------------0----------2---0--------|
C#-----------------0---------------------------4--------------------------|
G#---------------2------------4-------------2-----------------------------|
d#------------3------------5-------------0--------------------------------|


D#---------------0h2p0--------0-----------0-----------------------|
A#---------------------0---3-----3-----3-----3----3-----2---------|
F#-----------0----------------------0-----------------------------|
C#----------------------------------------------------------------|
G#-------------------------3-----------2----------2-----0---------|
d#-3--2--0--------------------------------------------------------|
Tap to rate this tab
 
# A B C D E F G H I J K L M N O P Q R S T U V W X Y Z