Song name
# A B C D E F G H I J K L M N O P Q R S T U V W X Y Z

Mick Ronson - Slaughter On The 10th Avenue tab

after the intro,

e|---------------|-----------|------------------------|
B|---------------|-----------|---------12--10---------|
G|--------9b-----|9b-9-7-9b-9|-9b-9-7---------9-12-11-|
D|---------------|-----------|------------------------|
A|---------------|-----------|------------------------|
E|---------------|-----------|------------------------|

e|---------------|-----------|---------------------|
B|----10---------|-----------|---------------------|
G|-7-------------|9b-9-7--7-9|-9b-9-7-9b-9--9b-9-7-|
D|---------------|-----------|---------------------|
A|---------------|-----------|---------------------|
E|---------------|-----------|---------------------|


e|---------------|-----------|---------------------|
B|12-10----------|---12-14-15|---------------------|
G|--------9-12-11|-7---------|---------------------|
D|---------------|-----------|---------------------|
A|---------------|-----------|---------------------|
E|---------------|-----------|---------------------|

e|---------------|----------------------|-----------19-17------------|
B|-17b-----------|17b-17-15-17b-17------|-17b-17-15-------17-20-19---|
G|---------------|----------------------|----------------------------|
D|---------------|----------------------|----------------------------|
A|---------------|----------------------|----------------------------|
E|---------------|----------------------|----------------------------|

e|----17-----------|-----------|---------------------|
B|-15--------------|-----------|---------------------|
G|-----------------|-----------|---------------------|
D|-----------------|-----------|---------------------|
A|-----------------|-----------|---------------------|
E|-----------------|-----------|---------------------|

e|---------------|----------------------|-----------19-17------------|
B|-17b-17-15-----|15-17-17b-17-15-17b-17|-17b-17-15-------17-20-19---|
G|---------------|----------------------|----------------------------|
D|---------------|----------------------|----------------------------|
A|---------------|----------------------|----------------------------|
E|---------------|----------------------|----------------------------|

e|----17-----------|-----------|---------------------|
B|-15--------------|-----------|---------------------|
G|-----------------|-----------|---------------------|
D|-----------------|-----------|---------------------|
A|-----------------|-----------|---------------------|
E|-----------------|-----------|---------------------|



:)
Tap to rate this tab
# A B C D E F G H I J K L M N O P Q R S T U V W X Y Z