Song name
# A B C D E F G H I J K L M N O P Q R S T U V W X Y Z

Microphones - I Want Wind To Blow tab

standard tuning

Guitar 1

I finger pick this.
Some verses only pluck two strings instead of 3.

|--------------------------------------|
|--------------------------------------|
|-0-0-0----0-0-0-----------------------|
|-5-4-0----2-0-------0-----------------|
|--------------2-----2-----0--2--------|
|-3-3-3----3-3-3-----3-----3--3--------|

|--------------------------------------|
|--------------------------------------|
|-0-4-0----0-0-0-0---------------------|
|-5-5-2----2-4-5-0----0----------------|
|---------------------2-----0--2-------|
|-3-3-3----3-3-3-3----3-----3--3-------|

Guitar 2

There are variations of this throughout, but it's more or less like this.

|---------------------------------------|
|---------------------------------------|
|---------------------------------------|
|-------------------------2---2------2--|
|----2---2------2------3---3----3-3----3|
|-3---3----3-3----3---------------------|

|---------------------------------------|
|---------------------------------------|
|---------------------------------------|
|---------------------------------------|
|----2---2------2----2---2---2-----2----|
|-3---3----3-3----2---3---3---3-3----3--|

Outro

|---------------------------------------|
|--5--3---5-----------------------------|
|--4-------------2--2----4--2---0-------|
|--5--------5----0----------------------|
|--3-------------2----------------------|
|----------------3----------------------|
Tap to rate this tab
 
# A B C D E F G H I J K L M N O P Q R S T U V W X Y Z