Song name
# A B C D E F G H I J K L M N O P Q R S T U V W X Y Z

Microphones - Youll Be In The Air tab

Chords:

C#min    E      F#     A
--0------0------2------5---|
--5------0------2------5---|
--6------1------3------6---|
--6------2------4------7---|
--4------2------4------7---|
---------0------2------5---|


Main melody ("You'll be in the air"):

----------------|
----------------|
----------4-----|
-------------6--|
-4--6--7--------|
----------------|


Arpeggios (listen to the song to figure out the number of times each one is repeated):

-----------------------------------------------------------------|
-9------9---------5-----5--------7------7-------10------10-------|
---9------9---------4-----4--------6------6--------9-------9-----|
-----11-----11--------6-----6--------8------8---------11-----11--|
-----------------------------------------------------------------|
-----------------------------------------------------------------|


For the bridge ("In the cold river basin where I spent the night..."), rapidly strum the chords:

C#min/E   E      F#     A
---0------0------2------5---|
---5------0------2------5---|
---6------1------3------6---|
---6------2------4------7---|
---4------2------4------7---|
---0------0------2------5---|
Tap to rate this tab
 
# A B C D E F G H I J K L M N O P Q R S T U V W X Y Z