Song name
# A B C D E F G H I J K L M N O P Q R S T U V W X Y Z

Middle Brother - Blue Eyes tab

-------------------------------------------------------------------------------|
                             BLUE EYES - Middle Brother------------------------|
Tabbed by: Abe M.
E-mail: firepick11@gmail.com

Tuning:EADGBe

e|----------------------------------------------------------------------------|
B|---------3-----3---3/5--0------3--------------------------------------------|
G|---------0-------0------0------4----4p2p0------0----------------------------|
D|-------------------------------4-----------2p0------------------------------|
A|-----------------------------2----------------------------------------------|
E|-----3----------------------------------------------------------------------|

e|----------------------------------------------------------------------------|
B|---------3-----3---3/5--0------3--------------------------------------------|
G|---------0-------0------0------4----4p2-0-2-0-------------------------------|
D|-------------------------------4--------------------------------------------|
A|-----------------------------2----------------------------------------------|
E|-----3----------------------------------------------------------------------|

G
Blue eyes are turning green

Bm               Am        C
Mine have always been that way

G
A soft kiss is a hard goodbye

Bm                     Am     C
Been knocked out since yesterday



D         C           G
I've been looking for sometime

D                 C              G
In a room full of pennies for my dime

D       C       G
It aint easy to find

Bm          Am        G
A girl like you to be mine


e|----------------------------------------------------------------------------|
B|---------3-----3---3/5--0------3-3-3----------------------------------------|
G|---------0-------0------0------4-4-4--4p2p0------2h4------------------------|
D|-------------------------------4-4-3---------2p0----------------------------|
A|-----------------------------2----------------------------------------------|
E|-----3----------------------------------------------------------------------|

e|----------------------------------2p0---------------------------------------|
B|---------3-----3---3/5--0------3-------3---3----1--0------------------------|
G|---------0-------0------0------4-----------4p2--0--0------------------------|
D|----------------------------------------------------------------------------|
A|-----------------------------2----------------------------------------------|
E|-----3----------------------------------------------------------------------|


Ending

e|----------------------------------2p0---------------------------------------|
B|---------3-----3---3/5--0------3-------3---3----1--0------------------------|
G|---------0-------0------0------4-----------4p2--0--0------------------------|
D|----------------------------------------------------------------------------|
A|-----------------------------2----------------------------------------------|
E|-----3----------------------------------------------------------------------|

e|----------------------------------2p0---------------------------------------|
B|---------3-----3---3/5--0------3-------3---3----1--0------------------------|
G|---------0-------0------0------4-----------4p2--0--0------------------------|
D|----------------------------------------------------------------------------|
A|-----------------------------2----------------------------------------------|
E|-----3----------------------------------------------------------------------|

e|---------3-----3----3/5-----------------------------------------------------|
B|---------3-----3---------3---3-3\1-1p0--------------------------------------|
G|---------0-------0-------0-------------2p0-----0----------------------------|
D|-------------------------------------------2p0---2p0------------------------|
A|----------------------------------------------------------------------------|
E|-----3-------------------------------------------------3--------------------|

e|---------3---5-6-7-7-7-5---------3---------------------------------------------------|
B|---------3---------------8-7-5\3-3---------------------------------------------------|
G|---------0--------------------------2h0---0------------------------------------------|
D|----------------------------------------2--------------------------------------------|
A|-------------------------------------------------------------------------------------|
E|-----3-----------------------------------------3-------------------------------------|

************************************

| /   slide up
| \   slide down
| h   hammer-on
| p   pull-off
| ~   vibrato
| +   harmonic
| x   Mute note
| b   Bend
| pb  Pre-bend
| br  Bend release
| pbr Pre-bend release
| brb Bend release bend

************************************
Tap to rate this tab
 
# A B C D E F G H I J K L M N O P Q R S T U V W X Y Z