Song name
# A B C D E F G H I J K L M N O P Q R S T U V W X Y Z

Middle Class Fool - Queue tab

Help us improve GuitareTab! Take a short survey!
http://www.middleclassfool.co.uk/
Band: Middle Class Fool
Song: Queue
Tabbed By: Middleclasssam

Main Riff:

E----------------------------------------------------------------------|
B----------------------------------------------------------------------|
G-4-44------7-77-66----------------------------------------------------|
D-4-44-2-22-7-77-66-7--------------------------------------------------|
A-2-22-2-22-5-55-44-7--------------------------------------------------|
E------0-00---------5--------------------------------------------------|

Solo:
E----2-2-2-2-5-5-4-0--X4---14-14-14-14-17-17-16-12---X4----------------|
B---0-0-0-0-0-0-0-0-------0--0--0--0--0--0--0--0-----------------------|
G----------------------------------------------------------------------|
D----------------------------------------------------------------------|
A----------------------------------------------------------------------|
E----------------------------------------------------------------------|
Related for Queue tab