Song name
# A B C D E F G H I J K L M N O P Q R S T U V W X Y Z

Middle Class Fool - Lost In Reality tab

WWW.MIDDLECLASSFOOL.CO.UK
Composer: Sam Ostle
Band: Middle Class Fool
Song: Lost In Reality

Order:
Intro/Bridge
Verse
Chorus
Verse
Intro/Bridge
Chorus

Intro/Bridge
       
E||------------------------------------------------------------||
B||------------------------------------------------------------||
G||----------------------------7s6--7s64447s6------------------||
D||----5p4--5p4-2225p4---X2----5s4--5s42225s4----x2------------||
A||------------------------------------------------------------||
D||--------------------------0-----0---------------------------||

Verse:
E||------------------------------------------------------------||
B||------------------------------------------------------------||
G||-------77777--4444-6666-------------------------------------||
D||---00--77777--4444-6666-------------------------------------|| X6
A||---00--55555--2222-4444-------------------------------------||
D||---00-------------------------------------------------------||


Chorus:

E||------------------------------------------------------------||
B||------------------------------------------------------------||
G||------------------------------------------------------------||
D||---003~--------------7777-5555-0----------------------------|| X6
A||---003~p003~p003~p00-7777-5555-0----------------------------||
D||---003~p003~p003~p00-7777-5555-0----------------------------||
Tap to rate this tab
 
# A B C D E F G H I J K L M N O P Q R S T U V W X Y Z