Middle Class Rut - New Low tab

The pre-chorus isn`t perfect, but here`s the groundwork for the both guitar parts.

Verse
|------------------------------------------------------------------|
|------------------------------------------------------------------|
|-2-2-2-2-2-2-2-2\2-2-2-2-2-2-2-2\5-5-5-5-5-5-5-5\4-4-4-4-4-4-4-44-|
|-2-2-2-2-2-2-2-2\2-2-2-2-2-2-2-2\5-5-5-5-5-5-5-5\4-4-4-4-4-4-4-44-|
|-0-0-0-0-0-0-0-0\0-0-0-0-0-0-0-0\3-3-3-3-3-3-3-3\2-2-2-2-2-2-2-22-|
|------------------------------------------------------------------|
|                                                                  |
|------------------------------------------------------------------|
|------------------------------------------------------------------|
|------------------------------------------------------------------|
|-1414141414141414141414141414141414141212121212121217171717151515-|
|------------------------------------------------------------------|
|------------------------------------------------------------------|

Pre-Chorus
|------------------------------------------------------------------|
|------------------------------------------------------------------|
|-2-2-2-2-2-2xx9b\2-2-2-2-2-2x9-9\5-5-5-5-5-5xx12\4-4-4-4-4-4xx11\-|
|-2-2-2-2-2-2xx9b\2-2-2-2-2-2x9-9\5-5-5-5-5-5xx12\4-4-4-4-4-4xx11\-|
|-0-0-0-0-0-0xx---0-0-0-0-0-0x----3-3-3-3-3-3xx---2-2-2-2-2-2xx----|
|------------------------------------------------------------------|

Chrous
|--------------------------------------------------|
|--------------------------------------------------|
|-2-2-2-2-2-2-2-2\5-5-5-5-5-5-5-5\4-4-4-4-4-4-4222-|
|-2-2-2-2-2-2-2-2\5-5-5-5-5-5-5-5\4-4-4-4-4-4-4222-|
|-0-0-0-0-0-0-0-0\3-3-3-3-3-3-3-3\2-2-2-2-2-2-2000-|
|--------------------------------------------------|
|                                                  |
|--------------------------------------------------|
|--------------------------------------------------|
|--------------------------------------------------|
|-141414141414141412121212121212121717171717171515-|
|--------------------------------------------------|
|--------------------------------------------------|
|--------------------------------------------------|
|--------------------------------------------------|
|-2-2-2-2-2-2-2-2\5-5-5-5-5-5-5-5\4-4-4-4-4-4-4----|
|-2-2-2-2-2-2-2-2\5-5-5-5-5-5-5-5\4-4-4-4-4-4-4----|
|-0-0-0-0-0-0-0-0\3-3-3-3-3-3-3-3\2-2-2-2-2-2-2----|
|--------------------------------------------------|
|                                                  |
|--------------------------------------------------|
|--------------------------------------------------|
|--------------------------------------------------|
|-1414141414141414121212121212121217171717171717---|
|--------------------------------------------------|
|--------------------------------------------------|

Solo
|-----20b-20b-20b-20b-19b---------19b-19b-19b-20b-20b--------------|
|------------------------------------------------------------------|
|------------------------------------------------------------------|
|------------------------------------------------------------------|
|------------------------------------------------------------------|
|------------------------------------------------------------------|
|                                                                  |
|------------------------------------------------------------------|
|------------------------------------------------------------------|
|------------------------------------------------------------------|
|-1414141414141414141414141414141414141212121212121217171717151515-|
|------------------------------------------------------------------|
|------------------------------------------------------------------|
|-----201915b-----201915b---------201915--15--15/17b-17b-----------|
|---------------------------------------17--17---------------------|
|------------------------------------------------------------------|
|------------------------------------------------------------------|
|------------------------------------------------------------------|
|------------------------------------------------------------------|
|                                                                  |
|------------------------------------------------------------------|
|------------------------------------------------------------------|
|------------------------------------------------------------------|
|-1414141414141414141414141414141414141212121212121217171717151515-|
|------------------------------------------------------------------|
|------------------------------------------------------------------|

Lyrics/Arrangement:

Verse
I have no space
No room to move around
And this box is getting smaller
I'm trying to get out
How did I get so far
From where I was
When did I decide to lose my way
Who have I become

Pre-Chorus
I've got a new low, All 52 cards in a row
I see now that I won't let go, No I won't let go
Well who am I?, A cold shoulder left to cry
You feel bad well so do I, Yeah so do I

Chorus
I've been right, I've been left
I've been wrong, I've been left
Behind, I've been up
But mostly down
I've been right, I've been left
I've been wrong, I've been left
Behind, I've been up
But mostly down

Verse
I cannot help feeling like
I have so much at stake
So I lock myself inside my head
And I just run in place
So many directions I don't
Know which way to go
I'm so busy doing nothing
I got nothing to show

Pre-Chorus
I've got a new low, All 52 cards in a row
I see now that I won't let go, No I won't let go
Well who am I? A cold shoulder used to cry
You feel bad well so do I, Yeah so do I

Chorus

Verse
I make mistakes
Just like everybody else
But instead I'm letting go of it
I can't forgive myself


Verse
Well I did my time
In the window of this box
Like it or not
All I got now is today
Tomorrow aint here
And yesterday is gone dead on me anyway

Chorus
Tap to rate this tab
 
# A B C D E F G H I J K L M N O P Q R S T U V W X Y Z