Song name
# A B C D E F G H I J K L M N O P Q R S T U V W X Y Z

Middle Class Rut - New Low chords

Highlighted       Show chord diagrams
(I put that in the intro you play the B string as well, because to me it sounded 
just a bit empty/not loud enough with that one string...)




Intro

e|------------------------------------------------------------------------|
B|-0--0--0--0--0--0--0--0-0-0--0--0--0--0--0--0--0--0--0--0--0--0--0--0--0|
G|-9--9--9--9--9--9--9--9-7-9--9--9--9--9--9--9--7--7--7--7--7--7--7--7--7|
D|------------------------------------------------------------------------|
A|------------------------------------------------------------------------|
E|------------------------------------------------------------------------|


e|--0--0--0--0--0--0--0--0------------------------------------------------|
B|--8--8--8--8--8--6--6--6------------------------------------------------|
G|------------------------------------------------------------------------|
D|------------------------------------------------------------------------|
A|------------------------------------------------------------------------|
E|------------------------------------------------------------------------|

D                  Am                           Em
I have no space no room to move around and this box is getting smaller
   F
im trying to get out.
D                Am                             Em
How did i get so far from where i was, when did i decide to lose my ways
F
who have i become?



Am
I got a new low.
       Em
All 52 cards in a row
                 G
I see now that i wont let go
     Em
No i wont let go
Am
And who am i?
                Em
A cold shoulder left to cry
                  G
You feel bad well so do i!
          D
Well yeah so do i!


Am
Ive been right;  ive been left
Em
Ive been wrong; Ive been left behind
         G              D
Ive been up, but mostly down
Am
Ive been right;  ive been left
Em
Ive been wrong; Ive been left behind
          G             D
Ive been up, but mostly down


D
I can not help feeling like
  Am
I have so much in steak
     Em                              F
So i lock myself inside my head, and i just run in place
D                         Am
So many directions i dont know which way to go
      Em
Im so busy doing nothing 
    F
ive got nothing to show


Am
I got a new low.
       Em
All 52 cards in a row
                 G
I see now that i wont let go
     Em
No i wont let go
    Am
And who am i?
                Em
A cold shoulder left to cry
                  G
You feel bad well so do i!
          D
Well yeah so do i!


Am
Ive been right;  ive been left
C
Ive been wrong; Ive been left behind
         G              D
Ive been up, but mostly down
Am
Ive been right;  ive been left
C
Ive been wrong; Ive been left behind
         G              D
Ive been up, but mostly down

Solo:
e|--12--12--12--12--7-----------------------------------------------------|
B|---------------------8--12--12--12--12--13--13-13-12----13-12-----------|
G|-----------------------------------------------------12-------12--------|
D|------------------------------------------------------------------------|
A|------------------------------------------------------------------------|
E|------------------------------------------------------------------------|


e|------------------------------------------------------------------------|
B|--13-12-----------------------------------------------------------------|
G|--------12-9-12-9-12-14-------------------------------------------------|
D|------------------------------------------------------------------------|
A|------------------------------------------------------------------------|
E|------------------------------------------------------------------------|

X2
 
 or just play Am, C, G, D (whatever you fancy) 


D                         Am
I make mistakes just like everybody else
    Em                             F
but instead of letting go of it, i cant forgive myself
Am
Well I did my time
                     Em
In the window of this box

Like it or not
          G
All I got now is today

Tomorrow aint here
    D
And yesterday is gone dead on me anyway


Am
Ive been right;  ive been left
C
Ive been wrong; Ive been left behind
         G              D
Ive been up, but mostly down
Am
Ive been right;  ive been left
C
Ive been wrong; Ive been left behind
         G              D
Ive been up, but mostly down


play Am, C, G, D for end....

:)
Tap to rate this tab
 
# A B C D E F G H I J K L M N O P Q R S T U V W X Y Z