Song name
# A B C D E F G H I J K L M N O P Q R S T U V W X Y Z

Middle Class Rut - New Low tab

==========
INTRO
----------
G1
e|-----|x32  e|-----|x16   e|--- --|x12  e|--- -- -- -- --|
B|-----|     B|-----|      B|--- --|     B|--- -- -- -- --|
G|--9--|     G|--7--|      G|--12--|     G|--12-10-10-10--|
D|-----|     D|-----|      D|--- --|     D|--- -- -- -- --|
A|-----|     A|-----|      A|--- --|     A|--- -- -- -- --|
D|-----|     D|-----|      D|--- --|     D|--- -- -- -- --|
    .            .             .
G2
P1
e|--    -------------------|x2
B|--    -------------------|
G|--    -------------------|
D|--(/)4/7-7-7-7-7-7-7-7-7-|
A|--(/)4/7-7-7-7-7-7-7-7-7-|
D|--(/)4/7-7-7-7-7-7-7-7-7-|
         ^ ^ ^ ^ ^ ^ ^ ^ s

G2
P2
e|---  -- -- -- -- -- -- -- -- --|
B|---  -- -- -- -- -- -- -- -- --|
G|---  -- -- -- -- -- -- -- -- --|
D|--/10-10-10-10-10-10-10-10-10--|
A|--/10-10-10-10-10-10-10-10-10--|
D|--/10-10-10-10-10-10-10-10-10--|
     ^  ^  ^  ^  ^  ^  ^  ^  s

G2
P3
e|--  ------------------|
B|--  ------------------|
G|--  ------------------|
D|--/5-5-5-5-5-5-5-5-5--|
A|--/5-5-5-5-5-5-5-5-5--|
D|--/5-5-5-5-5-5-5-5-5--|
     ^ ^ ^ ^ ^ ^ ^ ^ s

Repeat all of the above 2x.
----------
END INTRO
==========
VERSE 1
----------
Repeat INTRO
----------
END VERSE 1
==========
PRE-CHORUS 1
----------
G1
e|----------------------- ---- ---- -- ------------ -- -- -- ------------ -- ---|x2
B|----------------------- ---- ---- -- ------------ -- -- -- ------------ -- ---|
G|----------------------- ---- ---- -- ------------ -- -- -- ------------ -- ---|
D|--7-7-7---7p5h7-7-7p5-12p9h10---12-12/5-5-5---5/15-15-15-15---7-7-7---19-19/--|
A|--7-7-7---7p5h7-7-7p5-12p9h10---12-12/5-5-5---5/15-15-15-15---7-7-7---19-19/--|
D|--7-7-7---7p5h7-7-7p5-12p9h10---12-12/5-5-5---5/15-15-15-15---7-7-7---19-19/--|
You can choose to only play the low D string for this section if you think it sounds better.
I simply put the notation down for all the power chords.

G2 Repeats INTRO 2x.
----------
END PRE-CHORUS 1
==========
CHORUS 1
----------
G1
e|-----|x16  e|-----|x16   e|--- --|x12  e|--- -- -- -- --|(Play this part only
B|-----|     B|-----|      B|--- --|     B|--- -- -- -- --|during the first time)
G|--9--|     G|--7--|      G|--12--|     G|--12-10-10-10--|
D|-----|     D|-----|      D|--- --|     D|--- -- -- -- --|
A|-----|     A|-----|      A|--- --|     A|--- -- -- -- --|
D|-----|     D|-----|      D|--- --|     D|--- -- -- -- --|
    .            .             .
	
G2
P1
e|--    -------------------|
B|--    -------------------|
G|--    -------------------|
D|--(/)4/7-7-7-7-7-7-7-7-7-|
A|--(/)4/7-7-7-7-7-7-7-7-7-|
D|--(/)4/7-7-7-7-7-7-7-7-7-|
         ^ ^ ^ ^ ^ ^ ^ ^ s

G2
P2
e|---  -- -- -- -- -- -- -- -- --|
B|---  -- -- -- -- -- -- -- -- --|
G|---  -- -- -- -- -- -- -- -- --|
D|--/10-10-10-10-10-10-10-10-10--|
A|--/10-10-10-10-10-10-10-10-10--|
D|--/10-10-10-10-10-10-10-10-10--|
     ^  ^  ^  ^  ^  ^  ^  ^  s

G2
P3
e|--  ----------------|
B|--  ----------------|
G|--  ----------------|
D|--/5-5-5-5-5-5-5-5--|
A|--/5-5-5-5-5-5-5-5--|
D|--/5-5-5-5-5-5-5-5--|
     ^ ^ ^ ^ ^ ^ ^ ^

Repeat all of the above 2x.
----------
END CHORUS 1
==========
VERSE 2 (Repeat VERSE 1)
==========
PRE-CHORUS 2 (Repeat PRE-CHORUS 1)
==========
CHORUS 2
----------
G1
e|-----|x16  e|-----|x16   e|--- --|x12  e|--- -- -- -- --|
B|-----|     B|-----|      B|--- --|     B|--- -- -- -- --|
G|--9--|     G|--7--|      G|--12--|     G|--12-10-10-10--|
D|-----|     D|-----|      D|--- --|     D|--- -- -- -- --|
A|-----|     A|-----|      A|--- --|     A|--- -- -- -- --|
D|-----|     D|-----|      D|--- --|     D|--- -- -- -- --|
    .            .             .
	
G2
P1
e|--    -------------------|
B|--    -------------------|
G|--    -------------------|
D|--(/)4/7-7-7-7-7-7-7-7-7-|
A|--(/)4/7-7-7-7-7-7-7-7-7-|
D|--(/)4/7-7-7-7-7-7-7-7-7-|
         ^ ^ ^ ^ ^ ^ ^ ^ s

G2
P2
e|---  -- -- -- -- -- -- -- -- --|
B|---  -- -- -- -- -- -- -- -- --|
G|---  -- -- -- -- -- -- -- -- --|
D|--/10-10-10-10-10-10-10-10-10--|
A|--/10-10-10-10-10-10-10-10-10--|
D|--/10-10-10-10-10-10-10-10-10--|
     ^  ^  ^  ^  ^  ^  ^  ^  s

G2
P3
e|--  ------------------|
B|--  ------------------|
G|--  ------------------|
D|--/5-5-5-5-5-5-5-5-5--|
A|--/5-5-5-5-5-5-5-5-5--|
D|--/5-5-5-5-5-5-5-5-5--|
     ^ ^ ^ ^ ^ ^ ^ ^ s

Repeat all of the above 2x.
----------
END CHORUS 2
==========
SOLO 1
----------
G1 and G2 repeat CHORUS 2.

G3
P1
e|--/20-20-20-20-19-15~15~-/19-19-19-19-20-20~20~--20-19-15~15~--20-19-15~15~-|
B|---- -- -- -- -- -- -- ---- -- -- -- -- -- -- ---- -- -- -- ---- -- -- -- --|
G|---- -- -- -- -- -- -- ---- -- -- -- -- -- -- ---- -- -- -- ---- -- -- -- --|
D|---- -- -- -- -- -- -- ---- -- -- -- -- -- -- ---- -- -- -- ---- -- -- -- --|
A|---- -- -- -- -- -- -- ---- -- -- -- -- -- -- ---- -- -- -- ---- -- -- -- --|
D|---- -- -- -- -- -- -- ---- -- -- -- -- -- -- ---- -- -- -- ---- -- -- -- --|

G3
P2
e|--20-19-15-13-15-13-15-13-/17-17~-|(Alternatively you could hammer/pull for 15 and 13).
B|--- -- -- -- -- -- -- -- --- -- --|
G|--- -- -- -- -- -- -- -- --- -- --|
D|--- -- -- -- -- -- -- -- --- -- --|
A|--- -- -- -- -- -- -- -- --- -- --|
D|--- -- -- -- -- -- -- -- --- -- --|

G3 Repeats 2x.
----------
END SOLO 1
==========
VERSE 3
----------
G2 Repeats VERSE 2 2x.
G1 comes in at the end of the first repeat of G2 with...

G1
e|--- -- -- -- --|
B|--- -- -- -- --|
G|--12-10-10-10--|
D|--- -- -- -- --|
A|--- -- -- -- --|
D|--- -- -- -- --|

...then repeats VERSE 2 1x.
----------
END VERSE 3
==========
CHORUS 3 (Repeat CHORUS 2 2x [total of 4x through])
==========
OUTRO
----------
G1 and G2 repeat INTRO.

G3
e|--15~17~--15~12~--10/20~19~--15h17-17~-|x2
B|--- -- ---- -- ---- -- -- ---- -- -- --|
G|--- -- ---- -- ---- -- -- ---- -- -- --|
D|--- -- ---- -- ---- -- -- ---- -- -- --|
A|--- -- ---- -- ---- -- -- ---- -- -- --|
D|--- -- ---- -- ---- -- -- ---- -- -- --|

----------
END OUTRO
==========
Tap to rate this tab
 
# A B C D E F G H I J K L M N O P Q R S T U V W X Y Z