Song name
# A B C D E F G H I J K L M N O P Q R S T U V W X Y Z

Middle Class Rut - Cornbread tab

Somewhat unsure if this is correct, since the guitar level is very low and hard to hear. 
Also, first tab.

Song: Cornbread

Artist: Middle Class Rut

Intro/Verse:

e|-----------------------------------|
B|-----------------------------------|
G|-6-6-6-6-6-6-6-6-6-6-6-6-6-6-4-5-6-|
D|-6-6-6-6-6-6-6-6-6-6-6-6-6-6-4-5-6-|
A|-4-4-4-4-4-4-4-4-4-4-4-4-4-4-2-3-4-|
E|-----------------------------------|

Higher pitched verse part:

e|-----------------------------------|
B|-----------------------------------|
G|-9-9-9-9-9-9-9-9-9-9-9-9-9-9-4-5-6-|
D|-9-9-9-9-9-9-9-9-9-9-9-9-9-9-4-5-6-|
A|-7-7-7-7-7-7-7-7-7-7-7-7-7-7-2-3-4-|
E|-----------------------------------|

Prechorus:

e|----------------------|
B|----------------------|
G|-9-9-9-9-9-9-9-7-7-7--|
D|-9-9-9-9-9-9-9-7-7-7--|
A|-7-7-7-7-7-7-7-5-5-5--|
E|----------------------|

Chorus:

e|-----------------|
B|-----------------|
G|-6-6-6-6-4-4-4-4-|
D|-6-6-6-6-4-4-4-4-|
A|-4-4-4-4-2-2-2-2-|
E|-----------------|

"No!"

e|-----
B|-----
G|-6---
D|-6---
A|-4---
E|-----

Higher pitched chorus (comes in during second and third choruses)

e|-----------------|
B|-----------------|
G|-9-9-9-9-7-7-7-7-|
D|-7-7-7-7-5-5-5-5-|
A|-7-7-7-7-5-5-5-5-|
E|-----------------|

Bridge:

e|-----------------|
B|-----------------|
G|-9-9-9-9-7-7-7-7-|
D|-7-7-7-7-5-5-5-5-|
A|-7-7-7-7-5-5-5-5-|
E|-----------------|
Tap to rate this tab
 
# A B C D E F G H I J K L M N O P Q R S T U V W X Y Z