Song name
# A B C D E F G H I J K L M N O P Q R S T U V W X Y Z

Middle Class Rut - New Low tab

Guitar 1 - E A D G B E
Guitar 2 - E A D G B E
Guitar 3 - E A D G B E - Pitch Effect (one octave up)
Guitar 4 - E A D G B E

INTRO
|Guitar1
|-----------------------------------------------------------------|
|-----------------------------------------------------------------|
|-----------------------------------------------------------------|
|-7---7---7---7---7---7---7---7---7---7---7---7---7---7---7---7---|
|-7---7---7---7---7---7---7---7---7---7---7---7---7---7---7---7---|
|-5---5---5---5---5---5---5---5---5---5---5---5---5---5---5---5---|
|
|Guitar 2
|-----------------------------------------------------------------|
|-----------------------------------------------------------------|
|-9-9-9-9-9-9-9-9-9-9-9-9-9-9-9-9-9-9-9-9-9-9-9-9-9-9-9-9-9-9-9-9-|
|-----------------------------------------------------------------|
|-----------------------------------------------------------------|
|-----------------------------------------------------------------|
  x x x x x x x x x x x x x x x x x x x x x x x x x x x x x x x x

|Guitar1
|-----------------------------------------------------------------|
|-----------------------------------------------------------------|
|-----------------------------------------------------------------|
|-10--10--10--10--10--10--10--10--5---5---5---5---5---5---5---5---|
|-10--10--10--10--10--10--10--10--5---5---5---5---5---5---5---5---|
|-8---8---8---8---8---8---8---8---3---3---3---3---3---3---3---3---|
|
|Guitar 2
|-----------------------------------------------------------------|
|-----------------------------------------------------------------|
|-7-7-7-7-7-7-7-7-7-7-7-7-7-7-7-7-12121212121212121212121212101010|
|-----------------------------------------------------------------|
|-----------------------------------------------------------------|
|-----------------------------------------------------------------|
  x x x x x x x x x x x x x x x x x x x x x x x x x x x x x

VERSE (2x)
|Guitar1
|-----------------------------------------------------------------|
|-----------------------------------------------------------------|
|-----------------------------------------------------------------|
|-7---7---7---7---7---7---7---7---7---7---7---7---7---7---7---7---|
|-7---7---7---7---7---7---7---7---7---7---7---7---7---7---7---7---|
|-5---5---5---5---5---5---5---5---5---5---5---5---5---5---5---5---|
|
|Guitar 2
|-----------------------------------------------------------------|
|-----------------------------------------------------------------|
|-9-9-9-9-9-9-9-9-9-9-9-9-9-9-9-9-9-9-9-9-9-9-9-9-9-9-9-9-9-9-9-9-|
|-----------------------------------------------------------------|
|-----------------------------------------------------------------|
|-----------------------------------------------------------------|
  x x x x x x x x x x x x x x x x x x x x x x x x x x x x x x x x

|Guitar1
|-----------------------------------------------------------------|
|-----------------------------------------------------------------|
|-----------------------------------------------------------------|
|-10--10--10--10--10--10--10--10--5---5---5---5---5---5---5---5---|
|-10--10--10--10--10--10--10--10--5---5---5---5---5---5---5---5---|
|-8---8---8---8---8---8---8---8---3---3---3---3---3---3---3---3---|
|
|Guitar 2
|-----------------------------------------------------------------|
|-----------------------------------------------------------------|
|-7-7-7-7-7-7-7-7-7-7-7-7-7-7-7-7-12121212121212121212121212101010|
|-----------------------------------------------------------------|
|-----------------------------------------------------------------|
|-----------------------------------------------------------------|
  x x x x x x x x x x x x x x x x x x x x x x x x x x x x x

CHORUS
|Guitar 1
|-----------------------------------------------------------------|
|-----------------------------------------------------------------|
|-----------------------------------------------------------------|
|-7---7---------------------------10------------------14--14-\-5--|
|-7---7---------------------------10------------------14--14-\-5--|
|-5---5-------------------5-3-5---8---10-8\3----------12--12-\-3--|

|Guitar 1
|-----------------------------------------------------------------|
|-----------------------------------------------------------------|
|-----------------------------------------------------------------|
|-----5---5-------------5/17171717----7---7-------------1212\-----|
|-----5---5-------------5/17171717----7---7-------------1212\-----|
|-----3---3-------------3/15151515----5---5-------------1010\-----|

|Guitar 1
|-----------------------------------------------------------------|
|-----------------------------------------------------------------|
|-----------------------------------------------------------------|
|-7---7---7-----------------------10------------------14--14-\-5--|
|-7---7---7-----------------------10------------------14--14-\-5--|
|-5---5---5---------------5-3-5---8---10-8\3----------12--12-\-3--|

|Guitar 1
|-----------------------------------------------------------------|
|-----------------------------------------------------------------|
|-----------------------------------------------------------------|
|-----5---5-------------5/17171717----7---7-------------1212\-----|
|-----5---5-------------5/17171717----7---7-------------1212\-----|
|-----3---3-------------3/15151515----5---5-------------1010\-----|

POST-CHORUS
|Guitar 1
|---------------------------------|
|---------------------------------|
|---------------------------------|
|-7---7---7---7---7---7---7---7---|
|-7---7---7---7---7---7---7---7---|
|-5---5---5---5---5---5---5---5---|
|
|Guitar 2
|---------------------------------|
|---------------------------------|
|-9-9-9-9-9-9-9-9-9-9-9-9-9-9-9-9-|
|---------------------------------|
|---------------------------------|
|---------------------------------|
  x x x x x x x x x x x x x x x x

|Guitar 1
|-----------------------------------------------------------------|
|-----------------------------------------------------------------|
|-----------------------------------------------------------------|
|-10--10--10--10--10--10--10--10--5---5---5---5---5---5---5---5---|
|-10--10--10--10--10--10--10--10--5---5---5---5---5---5---5---5---|
|-8---8---8---8---8---8---8---8---3---3---3---3---3---3---3---3---|
|
|Guitar 2
|-----------------------------------------------------------------|
|-----------------------------------------------------------------|
|-7-7-7-7-7-7-7-7-7-7-7-7-7-7-7-7-12121212121212121212121212101010|
|-----------------------------------------------------------------|
|-----------------------------------------------------------------|
|-----------------------------------------------------------------|
  x x x x x x x x x x x x x x x x x x x x x x x x x x x x x

|Guitar 1
|---------------------------------|
|---------------------------------|
|---------------------------------|
|-7---7---7---7---7---7---7---7---|
|-7---7---7---7---7---7---7---7---|
|-5---5---5---5---5---5---5---5---|
|
|Guitar 2
|---------------------------------|
|---------------------------------|
|-9-9-9-9-9-9-9-9-9-9-9-9-9-9-9-9-|
|---------------------------------|
|---------------------------------|
|---------------------------------|
  x x x x x x x x x x x x x x x x

|Guitar 1
|-----------------------------------------------------------------|
|-----------------------------------------------------------------|
|-----------------------------------------------------------------|
|-10--10--10--10--10--10--10--10--5---5---5---5---5---5---5-------|
|-10--10--10--10--10--10--10--10--5---5---5---5---5---5---5-------|
|-8---8---8---8---8---8---8---8---3---3---3---3---3---3---3-------|
|
|Guitar 2
|-----------------------------------------------------------------|
|-----------------------------------------------------------------|
|-7-7-7-7-7-7-7-7-7-7-7-7-7-7-7-7-12121212121212121212121212------|
|-----------------------------------------------------------------|
|-----------------------------------------------------------------|
|-----------------------------------------------------------------|
  x x x x x x x x x x x x x x x x x x x x x x x x x x x x x

VERSE 2 (2x)
|Guitar1
|-----------------------------------------------------------------|
|-----------------------------------------------------------------|
|-----------------------------------------------------------------|
|-7---7---7---7---7---7---7---7---7---7---7---7---7---7---7---7---|
|-7---7---7---7---7---7---7---7---7---7---7---7---7---7---7---7---|
|-5---5---5---5---5---5---5---5---5---5---5---5---5---5---5---5---|
|
|Guitar 2
|-----------------------------------------------------------------|
|-----------------------------------------------------------------|
|-9-9-9-9-9-9-9-9-9-9-9-9-9-9-9-9-9-9-9-9-9-9-9-9-9-9-9-9-9-9-9-9-|
|-----------------------------------------------------------------|
|-----------------------------------------------------------------|
|-----------------------------------------------------------------|
  x x x x x x x x x x x x x x x x x x x x x x x x x x x x x x x x

|Guitar1
|-----------------------------------------------------------------|
|-----------------------------------------------------------------|
|-----------------------------------------------------------------|
|-10--10--10--10--10--10--10--10--5---5---5---5---5---5---5---5---|
|-10--10--10--10--10--10--10--10--5---5---5---5---5---5---5---5---|
|-8---8---8---8---8---8---8---8---3---3---3---3---3---3---3---3---|
|
|Guitar 2
|-----------------------------------------------------------------|
|-----------------------------------------------------------------|
|-7-7-7-7-7-7-7-7-7-7-7-7-7-7-7-7-12121212121212121212121212101010|
|-----------------------------------------------------------------|
|-----------------------------------------------------------------|
|-----------------------------------------------------------------|
  x x x x x x x x x x x x x x x x x x x x x x x x x x x x x

CHORUS
|Guitar 1
|-----------------------------------------------------------------|
|-----------------------------------------------------------------|
|-----------------------------------------------------------------|
|-7---7---------------------------10------------------14--14-\-5--|
|-7---7---------------------------10------------------14--14-\-5--|
|-5---5-------------------5-3-5---8---10-8\3----------12--12-\-3--|

|Guitar 1
|-----------------------------------------------------------------|
|-----------------------------------------------------------------|
|-----------------------------------------------------------------|
|-----5---5-------------5/17171717----7---7-------------1212\-----|
|-----5---5-------------5/17171717----7---7-------------1212\-----|
|-----3---3-------------3/15151515----5---5-------------1010\-----|

|Guitar 1
|-----------------------------------------------------------------|
|-----------------------------------------------------------------|
|-----------------------------------------------------------------|
|-7---7---7-----------------------10------------------14--14-\-5--|
|-7---7---7-----------------------10------------------14--14-\-5--|
|-5---5---5---------------5-3-5---8---10-8\3----------12--12-\-3--|

|Guitar 1
|-----------------------------------------------------------------|
|-----------------------------------------------------------------|
|-----------------------------------------------------------------|
|-----5---5-------------5/17171717----7---7-------------1212\-----|
|-----5---5-------------5/17171717----7---7-------------1212\-----|
|-----3---3-------------3/15151515----5---5-------------1010\-----|

POST-CHORUS (2x)
|Guitar 1
|---------------------------------|
|---------------------------------|
|---------------------------------|
|-7---7---7---7---7---7---7---7---|
|-7---7---7---7---7---7---7---7---|
|-5---5---5---5---5---5---5---5---|
|
|Guitar 2
|---------------------------------|
|---------------------------------|
|-9-9-9-9-9-9-9-9-9-9-9-9-9-9-9-9-|
|---------------------------------|
|---------------------------------|
|---------------------------------|
  x x x x x x x x x x x x x x x x

|Guitar 1
|-----------------------------------------------------------------|
|-----------------------------------------------------------------|
|-----------------------------------------------------------------|
|-10--10--10--10--10--10--10--10--5---5---5---5---5---5---5---5---|
|-10--10--10--10--10--10--10--10--5---5---5---5---5---5---5---5---|
|-8---8---8---8---8---8---8---8---3---3---3---3---3---3---3---3---|
|
|Guitar 2
|-----------------------------------------------------------------|
|-----------------------------------------------------------------|
|-7-7-7-7-7-7-7-7-7-7-7-7-7-7-7-7-12121212121212121212121212101010|
|-----------------------------------------------------------------|
|-----------------------------------------------------------------|
|-----------------------------------------------------------------|
  x x x x x x x x x x x x x x x x x x x x x x x x x x x x x

BRIDGE  (2x)
|Guitar1
|-----------------------------------------------------------------|
|-----------------------------------------------------------------|
|-----------------------------------------------------------------|
|-7---7---7---7---7---7---7---7---10--10--10--10--10--10--10--10--|
|-7---7---7---7---7---7---7---7---10--10--10--10--10--10--10--10--|
|-5---5---5---5---5---5---5---5---8---8---8---8---8---8---8---8---|
|
|Guitar 2
|-----------------------------------------------------------------|
|-----------------------------------------------------------------|
|-9-9-9-9-9-9-9-9-9-9-9-9-9-9-9-9-9-9-9-9-9-9-9-9-9-9-9-9-9-9-9-9-|
|-----------------------------------------------------------------|
|-----------------------------------------------------------------|
|-----------------------------------------------------------------|
| x x x x x x x x x x x x x x x x x x x x x x x x x x x x x x x x
|
|Guitar 3
|-----12--12--12--12----------------------------------------------|
|---------------------12--------------12--12--12--12--13--13~-----|
|-------------------------12~-------------------------------------|
|-----------------------------------------------------------------|
|-----------------------------------------------------------------|
|-----------------------------------------------------------------|

|Guitar1
|-----------------------------------------------------------------|
|-----------------------------------------------------------------|
|-----------------------------------------------------------------|
|-5---5---5---5---5---5---5---5---7---7---7---7---7---7---7---7---|
|-5---5---5---5---5---5---5---5---7---7---7---7---7---7---7---7---|
|-3---3---3---3---3---3---3---3---5---5---5---5---5---5---5---5---|
|
|Guitar 2
|-----------------------------------------------------------------|
|-----------------------------------------------------------------|
|-7-7-7-7-7-7-7-7-7-7-7-7-7-7-7-7-12121212121212121212121212101010|
|-----------------------------------------------------------------|
|-----------------------------------------------------------------|
|-----------------------------------------------------------------|
| x x x x x x x x x x x x x x x x x x x x x x x x x x x x x
|
|Guitar 3
|-----------------------------------------------------------------|
|-----1312------------1312------------1312------------------------|
|---------12~-------------12~-------------12--12--12--14--14~-----|
|-------------------------------------------14--14----------------|
|-----------------------------------------------------------------|
|-----------------------------------------------------------------|

POST BRIDGE
|Guitar1
|-----------------------------------------------------------------|
|-----------------------------------------------------------------|
|-----------------------------------------------------------------|
|-7---7---7---7---7---7---7---7---7---7---7---7---7---7---7---7---|
|-7---7---7---7---7---7---7---7---7---7---7---7---7---7---7---7---|
|-5---5---5---5---5---5---5---5---5---5---5---5---5---5---5---5---|
|
|Guitar 2
|-----------------------------------------------------------------|
|-----------------------------------------------------------------|
|-----------------------------------------------------------------|
|-----------------------------------------------------------------|
|-----------------------------------------------------------------|
|-----------------------------------------------------------------|

|Guitar1
|-----------------------------------------------------------------|
|-----------------------------------------------------------------|
|-----------------------------------------------------------------|
|-10--10--10--10--10--10--10--10--5---5---5---5---5---5---5---5---|
|-10--10--10--10--10--10--10--10--5---5---5---5---5---5---5---5---|
|-8---8---8---8---8---8---8---8---3---3---3---3---3---3---3---3---|
|
|Guitar 2
|-----------------------------------------------------------------|
|-----------------------------------------------------------------|
|---------------------------------------------------------12101010|
|-----------------------------------------------------------------|
|-----------------------------------------------------------------|
|-----------------------------------------------------------------|
                                                          x

|Guitar1 (5x)
|-----------------------------------------------------------------|
|-----------------------------------------------------------------|
|-----------------------------------------------------------------|
|-7---7---7---7---7---7---7---7---7---7---7---7---7---7---7---7---|
|-7---7---7---7---7---7---7---7---7---7---7---7---7---7---7---7---|
|-5---5---5---5---5---5---5---5---5---5---5---5---5---5---5---5---|
|
|Guitar 2
|-----------------------------------------------------------------|
|-----------------------------------------------------------------|
|-9-9-9-9-9-9-9-9-9-9-9-9-9-9-9-9-9-9-9-9-9-9-9-9-9-9-9-9-9-9-9-9-|
|-----------------------------------------------------------------|
|-----------------------------------------------------------------|
|-----------------------------------------------------------------|
  x x x x x x x x x x x x x x x x x x x x x x x x x x x x x x x x

|Guitar1
|-----------------------------------------------------------------|
|-----------------------------------------------------------------|
|-----------------------------------------------------------------|
|-10--10--10--10--10--10--10--10--5---5---5---5---5---5---5---5---|
|-10--10--10--10--10--10--10--10--5---5---5---5---5---5---5---5---|
|-8---8---8---8---8---8---8---8---3---3---3---3---3---3---3---3---|
|
|Guitar 2
|-----------------------------------------------------------------|
|-----------------------------------------------------------------|
|-7-7-7-7-7-7-7-7-7-7-7-7-7-7-7-7-12121212121212121212121212101010|
|-----------------------------------------------------------------|
|-----------------------------------------------------------------|
|-----------------------------------------------------------------|
  x x x x x x x x x x x x x x x x x x x x x x x x x x x x x

OUTRO (2x)
|-----------------------------------------------------------------|
|-----------------------------------------------------------------|
|-----------------------------------------------------------------|
|-7---7---7---7---7---7---7---7---7---7---7---7---7---7---7---7---|
|-7---7---7---7---7---7---7---7---7---7---7---7---7---7---7---7---|
|-5---5---5---5---5---5---5---5---5---5---5---5---5---5---5---5---|
|
|Guitar 2
|-----------------------------------------------------------------|
|-----------------------------------------------------------------|
|-9-9-9-9-9-9-9-9-9-9-9-9-9-9-9-9-9-9-9-9-9-9-9-9-9-9-9-9-9-9-9-9-|
|-----------------------------------------------------------------|
|-----------------------------------------------------------------|
|-----------------------------------------------------------------|
| x x x x x x x x x x x x x x x x x x x x x x x x x x x x x x x x
|
|Guitar 4
|-15--15--15--17--17--17--17--17--15--15--15--12--12--12--12--12--|
|-----------------------------------------------------------------|
|-----------------------------------------------------------------|
|-----------------------------------------------------------------|
|-----------------------------------------------------------------|
|-----------------------------------------------------------------|

|Guitar1
|-----------------------------------------------------------------|
|-----------------------------------------------------------------|
|-----------------------------------------------------------------|
|-10--10--10--10--10--10--10--10--5---5---5---5---5---5---5---5---|
|-10--10--10--10--10--10--10--10--5---5---5---5---5---5---5---5---|
|-8---8---8---8---8---8---8---8---3---3---3---3---3---3---3---3---|
|
|Guitar 2
|-----------------------------------------------------------------|
|-----------------------------------------------------------------|
|-7-7-7-7-7-7-7-7-7-7-7-7-7-7-7-7-12121212121212121212121212101010|
|-----------------------------------------------------------------|
|-----------------------------------------------------------------|
|-----------------------------------------------------------------|
| x x x x x x x x x x x x x x x x x x x x x x x x x x x x x
|
|Guitar 4
|-20--20--20--19--19--19--15--17--17--17--17--17--17--17--17--17--|
|-----------------------------------------------------------------|
|-----------------------------------------------------------------|
|-----------------------------------------------------------------|
|-----------------------------------------------------------------|
|-----------------------------------------------------------------|

************************************
| /   slide up
| \   slide down
| h   hammer-on
| p   pull-off
| ~   vibrato
| +   harmonic
| x   Mute note
| b   Bend
| pb  Pre-bend
| br  Bend release
| pbr Pre-bend release
| brb Bend release bend
************************************
Tap to rate this tab
 
# A B C D E F G H I J K L M N O P Q R S T U V W X Y Z