Song name
# A B C D E F G H I J K L M N O P Q R S T U V W X Y Z

Middle Class Rut - Are You On Your Way tab

Standard Tuning

Rhythm Guitar
(Practically the whole song.  Know when to play which variation)
Variation 1
e----------------------------------------------------------------|
b----------------------------------------------------------------|
g----------------------------------------------------------------|
d-----1414141414141414141414141414141414141414141414141414-77777-|
a-----1414141414141414141414141414141414141414141414141414-77777-|
e-5///1212121212121212121212121212121212121212121212121212-55555-|

Variation 2
e-------------------------------------------------------------------------|
b-------------------------------------------------------------------------|
g-------------------------------------------------------------------------|
d-----1414141414141414141414141414141414141414141414141414-77777-12121212-|
a-----1414141414141414141414141414141414141414141414141414-77777-12121212-|
e-5///1212121212121212121212121212121212121212121212121212-55555-10101010-|


Bridge (Coming straight from 2nd chorus "...are you coming home")
e------------------------------------------------------------------|
b------------------------------------------------------------------|
g------------------------------------------------------------------|
d-1212121212121212-10-10-10-10-10-10-10-10-10-10-10-10-10-12121212-|
a-1212121212121212-10-10-10-10-10-10-10-10-10-10-10-10-10-12121212-|
e-1010101010101010--8--8--8--8--8--8--8--8--8--8--8--8--8-10101010-|

"When are you coming home?!" Part (Notes in parenthesis optional)
e-------------------------------------------------------------------------|
b-(12121212121212121212121212121212--10101010101010101010101010101010-)---|
g-(12121212121212121212121212121212--11111111111111111111111111111111-)---|
d--14141414141414141414141414141414--12121212121212121212121212121212-----|
a--14141414141414141414141414141414--12121212121212121212121212121212-----|
e--12121212121212121212121212121212--10101010101010101010101010101010-----|

e------------------------------------------------------------------------|
b-(-8-8-8-8-8-8-8-8-8-8-8-8-8-8-8-8--10101010101010101010101010101010-)--|
g-(-9-9-9-9-9-9-9-9-9-9-9-9-9-9-9-9--11111111111111111111111111111111-)--|
d--10101010101010101010101010101010--12121212121212121212121212121212----|
a--10101010101010101010101010101010--12121212121212121212121212121212----|
e---8-8-8-8-8-8-8-8-8-8-8-8-8-8-8-8--10101010101010101010101010101010----|

e--------------------------------------------------------------|
b--------------------------------------------------------------|
g-9-99-99-9-99--9-99-99-9-99--9-99-99-9-99--9-99-99-9-99--7~---|
d-9-99-99-9-99--9-99-99-9-99--9-99-99-9-99--9-99-99-9-99--7~---|
a-7-77-77-7-77--7-77-77-7-77--7-77-77-7-77--7-77-77-7-77--5~---|
e-0-00-00-0-00--0-00-00-0-00--0-00-00-0-00--0-00-00-0-00--0~---|

Lead Guitar
Intro/Verses
e------------|
b------------|
g------------| repeat
d-11///9~----|
a------------|
e------------|

Solo after 1st chorus
e-----------------------------------------------|
b-10//9~----7//9~-------------------------------|
g--------------------9//11~---------------------|
d------------------------------9//14~--141414~--|
a-----------------------------------------------|
e-----------------------------------------------|
Tap to rate this tab
# A B C D E F G H I J K L M N O P Q R S T U V W X Y Z