Song name
# A B C D E F G H I J K L M N O P Q R S T U V W X Y Z

Middle Class Rut - Aunt Betty tab

Guitar 1 - D A D G B E - Panned to the left
Guitar 2 - D A D G B E - Panned to the right
Guitar 3 - D A D G B E - Solo
Guitar 4 - D A D G B E - Solo

INTRO
|Guitar 2
|-----------------------------------------------------------------|
|-----------------------------------------------------------------|
|-----------------------------------------------------------------|
|-----------------------------------------------------------------|
|------/5-8-5----------/5-8-5----------/5-8-5----------/5-8-5-----|
|-0-------------0---0---------x-x-0-------------0---0---------x-x-|

|Guitar 2
|-----------------------------------------------------------------|
|-----------------------------------------------------------------|
|-----------------------------------------------------------------|
|---------------------------------------------------7-----10------|
|------/5-8-5----------/5-8-5----------/5-8-5-----8-----7-------5-|
|-0-------------0---0---------x-x-0-------------0-----0-----0-5---|

VERSE
|Guitar 1
|-----------------------------------------------------------------|
|-----------------------------------------------------------------|
|-----------------------------------------------------------------|
|-----------------------------------------------------------------|
|-----------------------------------------------------------------|
|-0-----0-3-0---0---0---0-3-0-x-x-0-----0-3-0---0---0---0-3-0-x-x-|
|
|Guitar 2
|-----------------------------------------------------------------|
|-----------------------------------------------------------------|
|-----------------------------------------------------------------|
|-----------------------------------------------------------------|
|------/5-8-5----------/5-8-5----------/5-8-5----------/5-8-5-----|
|-0-------------0---0---------x-x-0-------------0---0---------x-x-|

|Guitar 1
|-----------------------------------------------------------------|
|-----------------------------------------------------------------|
|-----------------------------------------------------------------|
|---------------------------------------------------7-----10------|
|-------------------------------------------------8-----7-------5-|
|-0-----0-3-0---0---0---0-3-0-x-x-0-----0-3-0---0-----0-----0-5---|
|
|Guitar 2
|-----------------------------------------------------------------|
|-----------------------------------------------------------------|
|-----------------------------------------------------------------|
|---------------------------------------------------7-----10------|
|------/5-8-5----------/5-8-5----------/5-8-5-----8-----7-------5-|
|-0-------------0---0---------x-x-0-------------0-----0-----0-5---|

|Guitar 1
|-----------------------------------------------------------------|
|-----------------------------------------------------------------|
|-----------------------------------------------------------------|
|-----------------------------------------------------------------|
|-----------------------------------------------------------------|
|-0-----0-3-0---0---0---0-3-0-x-x-0-----0-3-0---0---0---0-3-0-x-x-|
|
|Guitar 2
|-----------------------------------------------------------------|
|-----------------------------------------------------------------|
|-----------------------------------------------------------------|
|-----------------------------------------------------------------|
|------/5-8-5----------/5-8-5----------/5-8-5----------/5-8-5-----|
|-0-------------0---0---------x-x-0-------------0---0---------x-x-|

|Guitar 1
|-----------------------------------------------------------------|
|-----------------------------------------------------------------|
|-----------------------------------------------------------------|
|---------------------------------------------------7-----10------|
|-------------------------------------------------8-----7-------5-|
|-0-----0-3-0---0---0---0-3-0-x-x-0-----0-3-0---0-----0-----0-5---|
|
|Guitar 2
|-----------------------------------------------------------------|
|-----------------------------------------------------------------|
|-----------------------------------------------------------------|
|---------------------------------------------------7-----10------|
|------/5-8-5----------/5-8-5----------/5-8-5-----8-----7-------5-|
|-0-------------0---0---------x-x-0-------------0-----0-----0-5---|

|Guitar 1
|-----------------------------------------------------------------|
|-----------------------------------------------------------------|
|-----------------------------------------------------------------|
|-----------------------------------------------------------------|
|-----------------------------------------------------------------|
|-0-----0-3-0---0---0---0-3-0-x-x-0-----0-3-0---0---0---0-3-0-x-x-|
|
|Guitar 2
|-----------------------------------------------------------------|
|-----------------------------------------------------------------|
|-----------------------------------------------------------------|
|-----------------------------------------------------------------|
|------/5-8-5----------/5-8-5----------/5-8-5----------/5-8-5-----|
|-0-------------0---0---------x-x-0-------------0---0---------x-x-|

|Guitar 1
|-----------------------------------------------------------------|
|-----------------------------------------------------------------|
|-----------------------------------------------------------------|
|---------------------------------------------------7-----10------|
|-------------------------------------------------8-----7-------5-|
|-0-----0-3-0---0---0---0-3-0-x-x-0-----0-3-0---0-----0-----0-5---|
|
|Guitar 2
|-----------------------------------------------------------------|
|-----------------------------------------------------------------|
|-----------------------------------------------------------------|
|---------------------------------------------------7-----10------|
|------/5-8-5----------/5-8-5----------/5-8-5-----8-----7-------5-|
|-0-------------0---0---------x-x-0-------------0-----0-----0-5---|

|Guitar 1
|-------------------------------|---------------------------------|
|-------------------------------|---------------------------------|
|-------------------------------|---------------------------------|
|------BREAK (no guitar)--------|---------------------------------|
|-------------------------------|---------------------------------|
|-------------------------------|-0-----0-3-0---0---0---0-3-0-x-x-|
|
|Guitar 2
|-------------------------------|---------------------------------|
|-------------------------------|---------------------------------|
|-------------------------------|---------------------------------|
|------BREAK (no guitar)--------|---------------------------------|
|-------------------------------|------/5-8-5----------/5-8-5-----|
|-------------------------------|-0-------------0---0---------x-x-|

|Guitar 1
|-------------------------------|---------------------------------|
|-------------------------------|---------------------------------|
|-------------------------------|---------------------------------|
|------BREAK (no guitar)--------|-------------------7-----10------|
|-------------------------------|-----------------8-----7-------5-|
|-------------------------------|-0-----0-3-0---0-----0-----0-5---|
|
|Guitar 2
|-------------------------------|---------------------------------|
|-------------------------------|---------------------------------|
|-------------------------------|---------------------------------|
|------BREAK (no guitar)--------|-------------------7-----10------|
|-------------------------------|------/5-8-5-----8-----7-------5-|
|-------------------------------|-0-------------0-----0-----0-5---|

|Guitar 1
|-----------------------------------------------------------------|
|-----------------------------------------------------------------|
|-----------------------------------------------------------------|
|-----------------------------------------------------------------|
|-----------------------------------------------------------------|
|-0-----0-3-0---0---0---0-3-0-x-x-0-----0-3-0---0---0---0-3-0-x-x-|
|
|Guitar 2
|-----------------------------------------------------------------|
|-----------------------------------------------------------------|
|-----------------------------------------------------------------|
|-----------------------------------------------------------------|
|------/5-8-5----------/5-8-5----------/5-8-5----------/5-8-5-----|
|-0-------------0---0---------x-x-0-------------0---0---------x-x-|

|Guitar 1
|-----------------------------------------------------------------|
|-----------------------------------------------------------------|
|-----------------------------------------------------------------|
|---------------------------------------------------7-----10------|
|-------------------------------------------------8-----7-------5-|
|-0-----0-3-0---0---0---0-3-0-x-x-0-----0-3-0---0-----0-----0-5---|
|
|Guitar 2
|-----------------------------------------------------------------|
|-----------------------------------------------------------------|
|-----------------------------------------------------------------|
|---------------------------------------------------7-----10------|
|------/5-8-5----------/5-8-5----------/5-8-5-----8-----7-------5-|
|-0-------------0---0---------x-x-0-------------0-----0-----0-5---|

|Guitar 1
|-----------------------------------------------------------------|
|-----------------------------------------------------------------|
|-----------------------------------------------------------------|
|-----------------------------------------------------------------|
|-----------------------------------------------------------------|
|-0-----0-3-0---0---0---0-3-0-x-x-0-----0-3-0---0---0---0-3-0-x-x-|
|
|Guitar 2
|-----------------------------------------------------------------|
|-----------------------------------------------------------------|
|-----------------------------------------------------------------|
|-----------------------------------------------------------------|
|------/5-8-5----------/5-8-5----------/5-8-5----------/5-8-5-----|
|-0-------------0---0---------x-x-0-------------0---0---------x-x-|

|Guitar 1
|-----------------------------------------------------------------|
|-----------------------------------------------------------------|
|-----------------------------------------------------------------|
|---------------------------------10------------------------------|
|---------------------------------10------------------------------|
|-0-----0-3-0---0---0---0-3-0-x-x-10------------------------------|
|
|Guitar 2
|-----------------------------------------------------------------|
|-----------------------------------------------------------------|
|-----------------------------------------------------------------|
|---------------------------------10------------------------------|
|------/5-8-5----------/5-8-5-----10------------------------------|
|-0-------------0---0---------x-x-10------------------------------|

|Guitar 1
|---------------------------------|
|---------------------------------|
|---------------------------------|
|-10------------------------------|
|-10------------------------------|
|-10------------------------------|
| 
|Guitar 2
|---------------------------------|
|---------------------------------|
|---------------------------------|
|-10------------------------------|
|-10------------------------------|
|-10------------------------------|

CHORUS
|Guitar 1
|-----------------------------------------------------------------|
|-----------------------------------------------------------------|
|-----------------------------------------------------------------|
|-8---8---8---8---10--10--10--10--0---0---0---0---0---0---0---0---|
|-8---8---8---8---10--10--10--10--0---0---0---0---0---0---0---0---|
|-8---8---8---8---10--10--10--10--0---0---0---0---0---0---0---0---|
|
|Guitar 2
|-----------------------------------------------------------------|
|-----------------------------------------------------------------|
|-----------------------------------------------------------------|
|-8---8---8---8---10--10--10--10--0---0---0---0---0---0---0---0---|
|-8---8---8---8---10--10--10--10--0---0---0---0---0---0---0---0---|
|-8---8---8---8---10--10--10--10--0---0---0---0---0---0---0---0---|

|Guitar 1
|-----------------------------------------------------------------|
|-----------------------------------------------------------------|
|-----------------------------------------------------------------|
|-5---5---5---5---5---5---5---5---8---8---8---8---8---8---8---8---|
|-5---5---5---5---5---5---5---5---8---8---8---8---8---8---8---8---|
|-5---5---5---5---5---5---5---5---8---8---8---8---8---8---8---8---|
|
|Guitar 2
|-----------------------------------------------------------------|
|-----------------------------------------------------------------|
|-----------------------------------------------------------------|
|-5---5---5---5---5---5---5---5---8---8---8---8---8---8---8---8---|
|-5---5---5---5---5---5---5---5---8---8---8---8---8---8---8---8---|
|-5---5---5---5---5---5---5---5---8---8---8---8---8---8---8---8---|

|Guitar 1
|-----------------------------------------------------------------|
|-----------------------------------------------------------------|
|-----------------------------------------------------------------|
|-8---8---8---8---10--10--10--10--0---0---0---0---0---0---0---0---|
|-8---8---8---8---10--10--10--10--0---0---0---0---0---0---0---0---|
|-8---8---8---8---10--10--10--10--0---0---0---0---0---0---0---0---|
|
|Guitar 2
|-----------------------------------------------------------------|
|-----------------------------------------------------------------|
|-----------------------------------------------------------------|
|-8---8---8---8---10--10--10--10--0---0---0---0---0---0---0---0---|
|-8---8---8---8---10--10--10--10--0---0---0---0---0---0---0---0---|
|-8---8---8---8---10--10--10--10--0---0---0---0---0---0---0---0---|

|Guitar 1
|-----------------------------------------------------------------|
|-----------------------------------------------------------------|
|-----------------------------------------------------------------|
|-8---8---8---8---8---8---8---8---10--10--10--10--10--10----------|
|-8---8---8---8---8---8---8---8---10--10--10--10--10--10----------|
|-8---8---8---8---8---8---8---8---10--10--10--10--10--10----------|
|
|Guitar 2
|-----------------------------------------------------------------|
|-----------------------------------------------------------------|
|-----------------------------------------------------------------|
|-8---8---8---8---8---8---8---8---10--10--10--10--10--10----------|
|-8---8---8---8---8---8---8---8---10--10--10--10--10--10----------|
|-8---8---8---8---8---8---8---8---10--10--10--10--10--10----------|

POST CHORUS
|Guitar 1
|-----------------------------------------------------------------|
|-----------------------------------------------------------------|
|-----------------------------------------------------------------|
|---------------------------------------------------7-----10------|
|-------------------------------------------------8-----7-------5-|
|-0-----0-3-0---0---0---0-3-0-x-x-0-----0-3-0---0-----0-----0-5---|
|
|Guitar 2
|-----------------------------------------------------------------|
|-----------------------------------------------------------------|
|-----------------------------------------------------------------|
|---------------------------------------------------7-----10------|
|------/5-8-5----------/5-8-5----------/5-8-5-----8-----7-------5-|
|-0-------------0---0---------x-x-0-------------0-----0-----0-5---|

Verse
|Guitar 1
|-----------------------------------------------------------------|
|-----------------------------------------------------------------|
|-----------------------------------------------------------------|
|-----------------------------------------------------------------|
|-----------------------------------------------------------------|
|-0-----0-3-0---0---0---0-3-0-x-x-0-----0-3-0---0---0---0-3-0-x-x-|
|
|Guitar 2
|-----------------------------------------------------------------|
|-----------------------------------------------------------------|
|-----------------------------------------------------------------|
|-----------------------------------------------------------------|
|------/5-8-5----------/5-8-5----------/5-8-5----------/5-8-5-----|
|-0-------------0---0---------x-x-0-------------0---0---------x-x-|

|Guitar 1
|-----------------------------------------------------------------|
|-----------------------------------------------------------------|
|-----------------------------------------------------------------|
|---------------------------------------------------7-----10------|
|-------------------------------------------------8-----7-------5-|
|-0-----0-3-0---0---0---0-3-0-x-x-0-----0-3-0---0-----0-----0-5---|
|
|Guitar 2
|-----------------------------------------------------------------|
|-----------------------------------------------------------------|
|-----------------------------------------------------------------|
|---------------------------------------------------7-----10------|
|------/5-8-5----------/5-8-5----------/5-8-5-----8-----7-------5-|
|-0-------------0---0---------x-x-0-------------0-----0-----0-5---|

|Guitar 1
|-----------------------------------------------------------------|
|-----------------------------------------------------------------|
|-----------------------------------------------------------------|
|-----------------------------------------------------------------|
|-----------------------------------------------------------------|
|-0-----0-3-0---0---0---0-3-0-x-x-0-----0-3-0---0---0---0-3-0-x-x-|
|
|Guitar 2
|-----------------------------------------------------------------|
|-----------------------------------------------------------------|
|-----------------------------------------------------------------|
|-----------------------------------------------------------------|
|------/5-8-5----------/5-8-5----------/5-8-5----------/5-8-5-----|
|-0-------------0---0---------x-x-0-------------0---0---------x-x-|

|Guitar 1
|-----------------------------------------------------------------|
|-----------------------------------------------------------------|
|-----------------------------------------------------------------|
|---------------------------------10------------------------------|
|---------------------------------10------------------------------|
|-0-----0-3-0---0---0---0-3-0-x-x-10------------------------------|
|
|Guitar 2
|-----------------------------------------------------------------|
|-----------------------------------------------------------------|
|-----------------------------------------------------------------|
|---------------------------------10------------------------------|
|------/5-8-5----------/5-8-5-----10------------------------------|
|-0-------------0---0---------x-x-10------------------------------|

CHORUS
|Guitar 1
|-----------------------------------------------------------------|
|-----------------------------------------------------------------|
|-----------------------------------------------------------------|
|-8---8---8---8---10--10--10--10--0---0---0---0---0---0---0---0---|
|-8---8---8---8---10--10--10--10--0---0---0---0---0---0---0---0---|
|-8---8---8---8---10--10--10--10--0---0---0---0---0---0---0---0---|
|
|Guitar 2
|-----------------------------------------------------------------|
|-----------------------------------------------------------------|
|-----------------------------------------------------------------|
|-8---8---8---8---10--10--10--10--0---0---0---0---0---0---0---0---|
|-8---8---8---8---10--10--10--10--0---0---0---0---0---0---0---0---|
|-8---8---8---8---10--10--10--10--0---0---0---0---0---0---0---0---|

|Guitar 1
|-----------------------------------------------------------------|
|-----------------------------------------------------------------|
|-----------------------------------------------------------------|
|-5---5---5---5---5---5---5---5---8---8---8---8---8---8---8---8---|
|-5---5---5---5---5---5---5---5---8---8---8---8---8---8---8---8---|
|-5---5---5---5---5---5---5---5---8---8---8---8---8---8---8---8---|
|
|Guitar 2
|-----------------------------------------------------------------|
|-----------------------------------------------------------------|
|-----------------------------------------------------------------|
|-5---5---5---5---5---5---5---5---8---8---8---8---8---8---8---8---|
|-5---5---5---5---5---5---5---5---8---8---8---8---8---8---8---8---|
|-5---5---5---5---5---5---5---5---8---8---8---8---8---8---8---8---|

|Guitar 1
|-----------------------------------------------------------------|
|-----------------------------------------------------------------|
|-----------------------------------------------------------------|
|-8---8---8---8---10--10--10--10--0---0---0---0---0---0---0---0---|
|-8---8---8---8---10--10--10--10--0---0---0---0---0---0---0---0---|
|-8---8---8---8---10--10--10--10--0---0---0---0---0---0---0---0---|
|
|Guitar 2
|-----------------------------------------------------------------|
|-----------------------------------------------------------------|
|-----------------------------------------------------------------|
|-8---8---8---8---10--10--10--10--0---0---0---0---0---0---0---0---|
|-8---8---8---8---10--10--10--10--0---0---0---0---0---0---0---0---|
|-8---8---8---8---10--10--10--10--0---0---0---0---0---0---0---0---|

|Guitar 1
|-----------------------------------------------------------------|
|-----------------------------------------------------------------|
|-----------------------------------------------------------------|
|-8---8---8---8---8---8---8---8---10--10--10--10--10--10--10--10--|
|-8---8---8---8---8---8---8---8---10--10--10--10--10--10--10--10--|
|-8---8---8---8---8---8---8---8---10--10--10--10--10--10--10--10--|
|
|Guitar 2
|-----------------------------------------------------------------|
|-----------------------------------------------------------------|
|-----------------------------------------------------------------|
|-8---8---8---8---8---8---8---8---10--10--10--10--10--10--10--10--|
|-8---8---8---8---8---8---8---8---10--10--10--10--10--10--10--10--|
|-8---8---8---8---8---8---8---8---10--10--10--10--10--10--10--10--|

BRIDGE
|Guitar 1
|-----------------------------------------------------------------|
|-----------------------------------------------------------------|
|-----------------------------------------------------------------|
|-0-----------------------------------------------------------0---|
|-0-----------------------------------------------------------0---|
|-0-----------------------------------------------------------0---|
|
|Guitar 2
|-----------------------------------------------------------------|
|-----------------------------------------------------------------|
|-----------------------------------------------------------------|
|-0-----------------------------------------------------------0---|
|-0-----------------------------------------------------------0---|
|-0-----------------------------------------------------------0---|
|
|Guitar 3
|-----------------------------------------------------------------|
|-----------------------------------------------------------------|
|-------7-----12--10----7-----10--9-----5-----9p7-7-----3-----2---|
|-----------------------------------------------------------------|
|-----------------------------------------------------------------|
|-----------------------------------------------------------------|
|
|Guitar 4
|-----------------------------------------------------------------|
|-----------------------------------------------------------------|
|-----------------------------------------------------------------|
|-------5-----8---7-----3-----7---5-----2-----5p3-3-----0---------|
|-------------------------------------------------------------3---|
|-----------------------------------------------------------------|

|Guitar 1
|-----------------------------------------------------------------|
|-----------------------------------------------------------------|
|-----------------------------------------------------------------|
|-0-----------------------------------------------------------0---|
|-0-----------------------------------------------------------0---|
|-0-----------------------------------------------------------0---|
|
|Guitar 2
|-----------------------------------------------------------------|
|-----------------------------------------------------------------|
|-----------------------------------------------------------------|
|-0-----------------------------------------------------------0---|
|-0-----------------------------------------------------------0---|
|-0-----------------------------------------------------------0---|
|
|Guitar 3
|-----------------------------------------------------------------|
|-----------------------------------------------------------------|
|-------7-----12--10----7-----10--9-----5-----9p7-7-----3-----2---|
|-----------------------------------------------------------------|
|-----------------------------------------------------------------|
|-----------------------------------------------------------------|
|
|Guitar 4
|-----------------------------------------------------------------|
|-----------------------------------------------------------------|
|-----------------------------------------------------------------|
|-------5-----8---7-----3-----7---5-----2-----5p3-3-----0---------|
|-------------------------------------------------------------3---|
|-----------------------------------------------------------------|

|Guitar 1
|-----------------------------------------------------------------|
|-----------------------------------------------------------------|
|-----------------------------------------------------------------|
|-8-----------8---10----------10--0-----------0---0-----------0---|
|-8-----------8---10----------10--0-----------0---0-----------0---|
|-8-----------8---10----------10--0-----------0---0-----------0---|
|
|Guitar 2
|-----------------------------------------------------------------|
|-----------------------------------------------------------------|
|-----------------------------------------------------------------|
|-8-----------8---10----------10--0-----------0---0-----------0---|
|-8-----------8---10----------10--0-----------0---0-----------0---|
|-8-----------8---10----------10--0-----------0---0-----------0---|

|Guitar 1
|-----------------------------------------------------------------|
|-----------------------------------------------------------------|
|-----------------------------------------------------------------|
|-8-----------8---10----------10--0-----------0---0-----------0---|
|-8-----------8---10----------10--0-----------0---0-----------0---|
|-8-----------8---10----------10--0-----------0---0-----------0---|
|
|Guitar 2
|-----------------------------------------------------------------|
|-----------------------------------------------------------------|
|-----------------------------------------------------------------|
|-8-----------8---10----------10--0-----------0---0-----------0---|
|-8-----------8---10----------10--0-----------0---0-----------0---|
|-8-----------8---10----------10--0-----------0---0-----------0---|

|Guitar 1
|-----------------------------------------------------------------|
|-----------------------------------------------------------------|
|-----------------------------------------------------------------|
|-8-----------8---10----------10--0-----------0---0-----------0---|
|-8-----------8---10----------10--0-----------0---0-----------0---|
|-8-----------8---10----------10--0-----------0---0-----------0---|
|
|Guitar 2
|-----------------------------------------------------------------|
|-----------------------------------------------------------------|
|-----------------------------------------------------------------|
|-8-----------8---10----------10--0-----------0---0-----------0---|
|-8-----------8---10----------10--0-----------0---0-----------0---|
|-8-----------8---10----------10--0-----------0---0-----------0---|

|Guitar 1
|-----------------------------------------------------------------|
|-----------------------------------------------------------------|
|-----------------------------------------------------------------|
|-5-----------5---5-----------5---7-----------10101010101010101010|
|-5-----------5---5-----------5---7-----------10101010101010101010|
|-5-----------5---5-----------5---7-----------10101010101010101010|
|                                              (these are 10's)
|Guitar 2
|-----------------------------------------------------------------|
|-----------------------------------------------------------------|
|-----------------------------------------------------------------|
|-5-----------5---5-----------5---7-----------10101010101010101010|
|-5-----------5---5-----------5---7-----------10101010101010101010|
|-5-----------5---5-----------5---7-----------10101010101010101010|
                                               (these are 10's)
CHORUS
|Guitar 1
|-----------------------------------------------------------------|
|-----------------------------------------------------------------|
|-----------------------------------------------------------------|
|-8---8---8---8---10--10--10--10--0---0---0---0---0---0---0---0---|
|-8---8---8---8---10--10--10--10--0---0---0---0---0---0---0---0---|
|-8---8---8---8---10--10--10--10--0---0---0---0---0---0---0---0---|
|
|Guitar 2
|-----------------------------------------------------------------|
|-----------------------------------------------------------------|
|-----------------------------------------------------------------|
|-8---8---8---8---10--10--10--10--0---0---0---0---0---0---0---0---|
|-8---8---8---8---10--10--10--10--0---0---0---0---0---0---0---0---|
|-8---8---8---8---10--10--10--10--0---0---0---0---0---0---0---0---|

|Guitar 1
|-----------------------------------------------------------------|
|-----------------------------------------------------------------|
|-----------------------------------------------------------------|
|-5---5---5---5---5---5---5---5---8---8---8---8---8---8---8---8---|
|-5---5---5---5---5---5---5---5---8---8---8---8---8---8---8---8---|
|-5---5---5---5---5---5---5---5---8---8---8---8---8---8---8---8---|
|
|Guitar 2
|-----------------------------------------------------------------|
|-----------------------------------------------------------------|
|-----------------------------------------------------------------|
|-5---5---5---5---5---5---5---5---8---8---8---8---8---8---8---8---|
|-5---5---5---5---5---5---5---5---8---8---8---8---8---8---8---8---|
|-5---5---5---5---5---5---5---5---8---8---8---8---8---8---8---8---|

|Guitar 1
|-----------------------------------------------------------------|
|-----------------------------------------------------------------|
|-----------------------------------------------------------------|
|-8---8---8---8---10--10--10--10--0---0---0---0---0---0---0---0---|
|-8---8---8---8---10--10--10--10--0---0---0---0---0---0---0---0---|
|-8---8---8---8---10--10--10--10--0---0---0---0---0---0---0---0---|
|
|Guitar 2
|-----------------------------------------------------------------|
|-----------------------------------------------------------------|
|-----------------------------------------------------------------|
|-8---8---8---8---10--10--10--10--0---0---0---0---0---0---0---0---|
|-8---8---8---8---10--10--10--10--0---0---0---0---0---0---0---0---|
|-8---8---8---8---10--10--10--10--0---0---0---0---0---0---0---0---|

|Guitar 1
|-----------------------------------------------------------------|
|-----------------------------------------------------------------|
|-----------------------------------------------------------------|
|-8---8---8---8---8---8---8---8---10--10--10--10--10--10--10--10--|
|-8---8---8---8---8---8---8---8---10--10--10--10--10--10--10--10--|
|-8---8---8---8---8---8---8---8---10--10--10--10--10--10--10--10--|
|
|Guitar 2
|-----------------------------------------------------------------|
|-----------------------------------------------------------------|
|-----------------------------------------------------------------|
|-8---8---8---8---8---8---8---8---10--10--10--10--10--10--10--10--|
|-8---8---8---8---8---8---8---8---10--10--10--10--10--10--10--10--|
|-8---8---8---8---8---8---8---8---10--10--10--10--10--10--10--10--|

************************************
| /   slide up
| \   slide down
| h   hammer-on
| p   pull-off
| ~   vibrato
| +   harmonic
| x   Mute note
| b   Bend
| pb  Pre-bend
| br  Bend release
| pbr Pre-bend release
| brb Bend release bend
************************************
Tap to rate this tab
# A B C D E F G H I J K L M N O P Q R S T U V W X Y Z